  0
SECTION
  2
HEADER
  9
$ACADVER
  1
AC1012
  9
$DWGCODEPAGE
  3
undefined
  9
$INSBASE
 10
0.0
 20
0.0
 30
0.0
  9
$EXTMIN
 10
1.000000000000000E+20
 20
1.000000000000000E+20
 30
1.000000000000000E+20
  9
$EXTMAX
 10
-1.000000000000000E+20
 20
-1.000000000000000E+20
 30
-1.000000000000000E+20
  9
$LIMMIN
 10
0.0
 20
0.0
  9
$LIMMAX
 10
12.0
 20
9.0
  9
$ORTHOMODE
 70
     0
  9
$REGENMODE
 70
     1
  9
$FILLMODE
 70
     1
  9
$QTEXTMODE
 70
     0
  9
$MIRRTEXT
 70
     1
  9
$DRAGMODE
 70
     2
  9
$LTSCALE
 40
1.0
  9
$OSMODE
 70
    37
  9
$ATTMODE
 70
     1
  9
$TEXTSIZE
 40
0.2
  9
$TRACEWID
 40
0.05
  9
$TEXTSTYLE
  7
STANDARD
  9
$CLAYER
  8
0
  9
$CELTYPE
  6
BYLAYER
  9
$CECOLOR
 62
   256
  9
$CELTSCALE
 40
1.0
  9
$DELOBJ
 70
     1
  9
$DISPSILH
 70
     0
  9
$DIMSCALE
 40
1.0
  9
$DIMASZ
 40
0.18
  9
$DIMEXO
 40
0.0625
  9
$DIMDLI
 40
0.38
  9
$DIMRND
 40
0.0
  9
$DIMDLE
 40
0.0
  9
$DIMEXE
 40
0.18
  9
$DIMTP
 40
0.0
  9
$DIMTM
 40
0.0
  9
$DIMTXT
 40
0.18
  9
$DIMCEN
 40
0.09
  9
$DIMTSZ
 40
0.0
  9
$DIMTOL
 70
     0
  9
$DIMLIM
 70
     0
  9
$DIMTIH
 70
     1
  9
$DIMTOH
 70
     1
  9
$DIMSE1
 70
     0
  9
$DIMSE2
 70
     0
  9
$DIMTAD
 70
     0
  9
$DIMZIN
 70
     0
  9
$DIMBLK
  1

  9
$DIMASO
 70
     1
  9
$DIMSHO
 70
     1
  9
$DIMPOST
  1

  9
$DIMAPOST
  1

  9
$DIMALT
 70
     0
  9
$DIMALTD
 70
     2
  9
$DIMALTF
 40
25.4
  9
$DIMLFAC
 40
1.0
  9
$DIMTOFL
 70
     0
  9
$DIMTVP
 40
0.0
  9
$DIMTIX
 70
     0
  9
$DIMSOXD
 70
     0
  9
$DIMSAH
 70
     0
  9
$DIMBLK1
  1

  9
$DIMBLK2
  1

  9
$DIMSTYLE
  2
STANDARD
  9
$DIMCLRD
 70
     0
  9
$DIMCLRE
 70
     0
  9
$DIMCLRT
 70
     0
  9
$DIMTFAC
 40
1.0
  9
$DIMGAP
 40
0.09
  9
$DIMJUST
 70
     0
  9
$DIMSD1
 70
     0
  9
$DIMSD2
 70
     0
  9
$DIMTOLJ
 70
     1
  9
$DIMTZIN
 70
     0
  9
$DIMALTZ
 70
     0
  9
$DIMALTTZ
 70
     0
  9
$DIMFIT
 70
     3
  9
$DIMUPT
 70
     0
  9
$DIMUNIT
 70
     2
  9
$DIMDEC
 70
     4
  9
$DIMTDEC
 70
     4
  9
$DIMALTU
 70
     2
  9
$DIMALTTD
 70
     2
  9
$DIMTXSTY
  7
STANDARD
  9
$DIMAUNIT
 70
     0
  9
$LUNITS
 70
     2
  9
$LUPREC
 70
     4
  9
$SKETCHINC
 40
0.1
  9
$FILLETRAD
 40
0.5
  9
$AUNITS
 70
     0
  9
$AUPREC
 70
     0
  9
$MENU
  1
.
  9
$ELEVATION
 40
0.0
  9
$PELEVATION
 40
0.0
  9
$THICKNESS
 40
0.0
  9
$LIMCHECK
 70
     0
  9
$CHAMFERA
 40
0.5
  9
$CHAMFERB
 40
0.5
  9
$CHAMFERC
 40
1.0
  9
$CHAMFERD
 40
0.0
  9
$SKPOLY
 70
     0
  9
$TDCREATE
 40
2458898.783692118
  9
$TDUPDATE
 40
2458898.783692118
  9
$TDINDWG
 40
0.0000000116
  9
$TDUSRTIMER
 40
0.0000000116
  9
$USRTIMER
 70
     1
  9
$ANGBASE
 50
0.0
  9
$ANGDIR
 70
     0
  9
$PDMODE
 70
     0
  9
$PDSIZE
 40
0.0
  9
$PLINEWID
 40
0.0
  9
$COORDS
 70
     1
  9
$SPLFRAME
 70
     0
  9
$SPLINETYPE
 70
     6
  9
$SPLINESEGS
 70
     8
  9
$ATTDIA
 70
     0
  9
$ATTREQ
 70
     1
  9
$HANDLING
 70
     1
  9
$HANDSEED
  5
175
  9
$SURFTAB1
 70
     6
  9
$SURFTAB2
 70
     6
  9
$SURFTYPE
 70
     6
  9
$SURFU
 70
     6
  9
$SURFV
 70
     6
  9
$UCSNAME
  2

  9
$UCSORG
 10
0.0
 20
0.0
 30
0.0
  9
$UCSXDIR
 10
1.0
 20
0.0
 30
0.0
  9
$UCSYDIR
 10
0.0
 20
1.0
 30
0.0
  9
$PUCSNAME
  2

  9
$PUCSORG
 10
0.0
 20
0.0
 30
0.0
  9
$PUCSXDIR
 10
1.0
 20
0.0
 30
0.0
  9
$PUCSYDIR
 10
0.0
 20
1.0
 30
0.0
  9
$USERI1
 70
     0
  9
$USERI2
 70
     0
  9
$USERI3
 70
     0
  9
$USERI4
 70
     0
  9
$USERI5
 70
     0
  9
$USERR1
 40
0.0
  9
$USERR2
 40
0.0
  9
$USERR3
 40
0.0
  9
$USERR4
 40
0.0
  9
$USERR5
 40
0.0
  9
$WORLDVIEW
 70
     1
  9
$SHADEDGE
 70
     3
  9
$SHADEDIF
 70
    70
  9
$TILEMODE
 70
     1
  9
$MAXACTVP
 70
    64
  9
$PINSBASE
 10
0.0
 20
0.0
 30
0.0
  9
$PLIMCHECK
 70
     0
  9
$PEXTMIN
 10
1.000000000000000E+20
 20
1.000000000000000E+20
 30
1.000000000000000E+20
  9
$PEXTMAX
 10
-1.000000000000000E+20
 20
-1.000000000000000E+20
 30
-1.000000000000000E+20
  9
$PLIMMIN
 10
0.0
 20
0.0
  9
$PLIMMAX
 10
12.0
 20
9.0
  9
$UNITMODE
 70
     0
  9
$VISRETAIN
 70
     1
  9
$PLINEGEN
 70
     0
  9
$PSLTSCALE
 70
     1
  9
$TREEDEPTH
 70
  3020
  9
$PICKSTYLE
 70
     1
  9
$CMLSTYLE
  2
STANDARD
  9
$CMLJUST
 70
     0
  9
$CMLSCALE
 40
1.0
  9
$SAVEIMAGES
 70
     1
  0
ENDSEC
  0
SECTION
  2
CLASSES
  0
CLASS
  1
ACDBDICTIONARYWDFLT
  2
AcDbDictionaryWithDefault
  3
ObjectDBX Classes
 90
    32768
280
     0
281
     0
  0
CLASS
  1
VISUALSTYLE
  2
AcDbVisualStyle
  3
ObjectDBX Classes
 90
     4095
280
     0
281
     0
  0
CLASS
  1
MATERIAL
  2
AcDbMaterial
  3
ObjectDBX Classes
 90
     1153
280
     0
281
     0
  0
CLASS
  1
SUN
  2
AcDbSun
  3
SCENEOE
 90
     1024
280
     0
281
     0
  0
CLASS
  1
DICTIONARYVAR
  2
AcDbDictionaryVar
  3
ObjectDBX Classes
 90
        0
280
     0
281
     0
  0
CLASS
  1
XRECORD
  2
AcDbXrecord
  3
AutoCAD 2000
 90
    32768
280
     0
281
     0
  0
CLASS
  1
LWPOLYLINE
  2
AcDbPolyline
  3
AutoCAD 2000
 90
    32768
280
     0
281
     1
  0
CLASS
  1
HATCH
  2
AcDbHatch
  3
AutoCAD 2000
 90
    32768
280
     0
281
     1
  0
CLASS
  1
ACDBPLACEHOLDER
  2
AcDbPlaceHolder
  3
ObjectDBX Classes
 90
        0
280
     0
281
     0
  0
CLASS
  1
LAYOUT
  2
AcDbLayout
  3
ObjectDBX Classes
 90
        0
280
     0
281
     0
  0
ENDSEC
  0
SECTION
  2
TABLES
  0
TABLE
  2
VPORT
  5
8
330
0
100
AcDbSymbolTable
 70
     1
  0
VPORT
  5
29
330
8
100
AcDbSymbolTableRecord
100
AcDbViewportTableRecord
  2
*ACTIVE
 70
     0
 10
0.0
 20
0.0
 11
1.0
 21
1.0
 12
0.0
 22
0.0
 13
0.0
 23
0.0
 14
0.5
 24
0.5
 15
0.5
 25
0.5
 16
0.0
 26
0.0
 36
1.0
 17
151.5657050116929
 27
81.64931833809615
 37
0.0
 40
401.675391512294
 41
1.685640776684247
 42
50.0
 43
0.0
 44
0.0
 50
0.0
 51
0.0
 71
     0
 72
   100
 73
     1
 74
     3
 75
     0
 76
     0
 77
     0
 78
     0
  0
ENDTAB
  0
TABLE
  2
LTYPE
  5
5
330
0
100
AcDbSymbolTable
 70
     1
  0
LTYPE
  5
14
330
5
100
AcDbSymbolTableRecord
100
AcDbLinetypeTableRecord
  2
BYBLOCK
 70
     0
  3

 72
    65
 73
     0
 40
0.0
  0
LTYPE
  5
15
330
5
100
AcDbSymbolTableRecord
100
AcDbLinetypeTableRecord
  2
BYLAYER
 70
     0
  3

 72
    65
 73
     0
 40
0.0
  0
LTYPE
  5
16
330
5
100
AcDbSymbolTableRecord
100
AcDbLinetypeTableRecord
  2
CONTINUOUS
 70
     0
  3
Solid line
 72
    65
 73
     0
 40
0.0
  0
ENDTAB
  0
TABLE
  2
LAYER
  5
2
330
0
100
AcDbSymbolTable
 70
     1
  0
LAYER
  5
10
330
2
100
AcDbSymbolTableRecord
100
AcDbLayerTableRecord
  2
0
 70
     0
 62
     7
  6
CONTINUOUS
  0
ENDTAB
  0
TABLE
  2
STYLE
  5
3
330
0
100
AcDbSymbolTable
 70
     1
  0
STYLE
  5
11
330
3
100
AcDbSymbolTableRecord
100
AcDbTextStyleTableRecord
  2
STANDARD
 70
     0
 40
0.0
 41
1.0
 50
0.0
 71
     0
 42
0.2
  3
txt
  4

  0
ENDTAB
  0
TABLE
  2
VIEW
  5
6
330
0
100
AcDbSymbolTable
 70
     0
  0
ENDTAB
  0
TABLE
  2
UCS
  5
7
330
0
100
AcDbSymbolTable
 70
     0
  0
ENDTAB
  0
TABLE
  2
APPID
  5
9
330
0
100
AcDbSymbolTable
 70
     1
  0
APPID
  5
12
330
9
100
AcDbSymbolTableRecord
100
AcDbRegAppTableRecord
  2
ACAD
 70
     0
  0
ENDTAB
  0
TABLE
  2
DIMSTYLE
  5
A
330
0
100
AcDbSymbolTable
 70
     1
  0
DIMSTYLE
105
27
330
A
100
AcDbSymbolTableRecord
100
AcDbDimStyleTableRecord
  2
STANDARD
 70
     0
  3

  4

  5

  6

  7

 40
1.0
 41
0.18
 42
0.0625
 43
0.38
 44
0.18
 45
0.0
 46
0.0
 47
0.0
 48
0.0
140
0.18
141
0.09
142
0.0
143
25.4
144
1.0
145
0.0
146
1.0
147
0.09
 71
     0
 72
     0
 73
     1
 74
     1
 75
     0
 76
     0
 77
     0
 78
     0
170
     0
171
     2
172
     0
173
     0
174
     0
175
     0
176
     0
177
     0
178
     0
270
     2
271
     4
272
     4
273
     2
274
     2
340
11
275
     0
280
     0
281
     0
282
     0
283
     1
284
     0
285
     0
286
     0
287
     3
288
     0
  0
ENDTAB
  0
TABLE
  2
BLOCK_RECORD
  5
1
330
0
100
AcDbSymbolTable
 70
    33
  0
BLOCK_RECORD
  5
1F
330
1
100
AcDbSymbolTableRecord
100
AcDbBlockTableRecord
  2
*MODEL_SPACE
  0
BLOCK_RECORD
  5
1B
330
1
100
AcDbSymbolTableRecord
100
AcDbBlockTableRecord
  2
*PAPER_SPACE
  0
BLOCK_RECORD
  5
52
330
1
100
AcDbSymbolTableRecord
100
AcDbBlockTableRecord
  2
BLOCK_2
  0
BLOCK_RECORD
  5
57
330
1
100
AcDbSymbolTableRecord
100
AcDbBlockTableRecord
  2
BLOCK_3
  0
BLOCK_RECORD
  5
5F
330
1
100
AcDbSymbolTableRecord
100
AcDbBlockTableRecord
  2
BLOCK_4
  0
BLOCK_RECORD
  5
67
330
1
100
AcDbSymbolTableRecord
100
AcDbBlockTableRecord
  2
BLOCK_5
  0
BLOCK_RECORD
  5
72
330
1
100
AcDbSymbolTableRecord
100
AcDbBlockTableRecord
  2
BLOCK_6
  0
BLOCK_RECORD
  5
7A
330
1
100
AcDbSymbolTableRecord
100
AcDbBlockTableRecord
  2
BLOCK_7
  0
BLOCK_RECORD
  5
82
330
1
100
AcDbSymbolTableRecord
100
AcDbBlockTableRecord
  2
BLOCK_8
  0
BLOCK_RECORD
  5
8A
330
1
100
AcDbSymbolTableRecord
100
AcDbBlockTableRecord
  2
BLOCK_9
  0
BLOCK_RECORD
  5
92
330
1
100
AcDbSymbolTableRecord
100
AcDbBlockTableRecord
  2
BLOCK_10
  0
BLOCK_RECORD
  5
9D
330
1
100
AcDbSymbolTableRecord
100
AcDbBlockTableRecord
  2
BLOCK_11
  0
BLOCK_RECORD
  5
A8
330
1
100
AcDbSymbolTableRecord
100
AcDbBlockTableRecord
  2
BLOCK_12
  0
BLOCK_RECORD
  5
B3
330
1
100
AcDbSymbolTableRecord
100
AcDbBlockTableRecord
  2
BLOCK_13
  0
BLOCK_RECORD
  5
BE
330
1
100
AcDbSymbolTableRecord
100
AcDbBlockTableRecord
  2
BLOCK_14
  0
BLOCK_RECORD
  5
C6
330
1
100
AcDbSymbolTableRecord
100
AcDbBlockTableRecord
  2
BLOCK_15
  0
BLOCK_RECORD
  5
CE
330
1
100
AcDbSymbolTableRecord
100
AcDbBlockTableRecord
  2
BLOCK_16
  0
BLOCK_RECORD
  5
D9
330
1
100
AcDbSymbolTableRecord
100
AcDbBlockTableRecord
  2
BLOCK_17
  0
BLOCK_RECORD
  5
E1
330
1
100
AcDbSymbolTableRecord
100
AcDbBlockTableRecord
  2
BLOCK_18
  0
BLOCK_RECORD
  5
EC
330
1
100
AcDbSymbolTableRecord
100
AcDbBlockTableRecord
  2
BLOCK_19
  0
BLOCK_RECORD
  5
F7
330
1
100
AcDbSymbolTableRecord
100
AcDbBlockTableRecord
  2
BLOCK_20
  0
BLOCK_RECORD
  5
FF
330
1
100
AcDbSymbolTableRecord
100
AcDbBlockTableRecord
  2
BLOCK_21
  0
BLOCK_RECORD
  5
104
330
1
100
AcDbSymbolTableRecord
100
AcDbBlockTableRecord
  2
BLOCK_22
  0
BLOCK_RECORD
  5
10C
330
1
100
AcDbSymbolTableRecord
100
AcDbBlockTableRecord
  2
BLOCK_23
  0
BLOCK_RECORD
  5
117
330
1
100
AcDbSymbolTableRecord
100
AcDbBlockTableRecord
  2
BLOCK_24
  0
BLOCK_RECORD
  5
11F
330
1
100
AcDbSymbolTableRecord
100
AcDbBlockTableRecord
  2
BLOCK_25
  0
BLOCK_RECORD
  5
127
330
1
100
AcDbSymbolTableRecord
100
AcDbBlockTableRecord
  2
BLOCK_26
  0
BLOCK_RECORD
  5
12F
330
1
100
AcDbSymbolTableRecord
100
AcDbBlockTableRecord
  2
BLOCK_27
  0
BLOCK_RECORD
  5
137
330
1
100
AcDbSymbolTableRecord
100
AcDbBlockTableRecord
  2
BLOCK_28
  0
BLOCK_RECORD
  5
13F
330
1
100
AcDbSymbolTableRecord
100
AcDbBlockTableRecord
  2
BLOCK_29
  0
BLOCK_RECORD
  5
147
330
1
100
AcDbSymbolTableRecord
100
AcDbBlockTableRecord
  2
BLOCK_30
  0
BLOCK_RECORD
  5
152
330
1
100
AcDbSymbolTableRecord
100
AcDbBlockTableRecord
  2
BLOCK_31
  0
BLOCK_RECORD
  5
15A
330
1
100
AcDbSymbolTableRecord
100
AcDbBlockTableRecord
  2
BLOCK_32
  0
BLOCK_RECORD
  5
162
330
1
100
AcDbSymbolTableRecord
100
AcDbBlockTableRecord
  2
BLOCK_33
  0
ENDTAB
  0
ENDSEC
  0
SECTION
  2
BLOCKS
  0
BLOCK
  5
20
330
1F
100
AcDbEntity
  8
0
100
AcDbBlockBegin
  2
*MODEL_SPACE
 70
     0
 10
0.0
 20
0.0
 30
0.0
  3
*MODEL_SPACE
  1

  0
ENDBLK
  5
21
330
1F
100
AcDbEntity
  8
0
100
AcDbBlockEnd
  0
BLOCK
  5
1C
330
1B
100
AcDbEntity
 67
     1
  8
0
100
AcDbBlockBegin
  2
*PAPER_SPACE
 70
     0
 10
0.0
 20
0.0
 30
0.0
  3
*PAPER_SPACE
  1

  0
ENDBLK
  5
1D
330
1B
100
AcDbEntity
 67
     1
  8
0
100
AcDbBlockEnd
  0
BLOCK
  5
54
330
52
100
AcDbEntity
  8
0
100
AcDbBlockBegin
  2
BLOCK_2
 70
     0
 10
0.0
 20
0.0
 30
0.0
  3
BLOCK_2
  1

  0
SPLINE
  5
56
330
52
100
AcDbEntity
  8
0
 62
     7
100
AcDbSpline
210
0.0
220
0.0
230
1.0
 70
    11
 71
     3
 72
    29
 73
    25
 74
     0
 42
0.0000000001
 43
0.0000000001
 12
1.0
 22
0.0
 32
0.0
 13
1.0
 23
0.0
 33
0.0
 40
0.0
 40
0.0
 40
0.0
 40
0.0
 40
1.0
 40
1.0
 40
1.0
 40
2.0
 40
2.0
 40
2.0
 40
3.0
 40
3.0
 40
3.0
 40
4.0
 40
4.0
 40
4.0
 40
5.0
 40
5.0
 40
5.0
 40
6.0
 40
6.0
 40
6.0
 40
7.0
 40
7.0
 40
7.0
 40
8.0
 40
8.0
 40
8.0
 40
8.0
 10
20.31735543938393
 20
32.00467377890156
 30
0.0
 10
20.31735543938393
 20
32.00467377890156
 30
0.0
 10
-83.6826445606159
 20
32.00467377890156
 30
0.0
 10
-83.6826445606159
 20
32.00467377890156
 30
0.0
 10
-88.10092255926226
 20
32.00467377890156
 30
0.0
 10
-91.68264456061553
 20
28.42295177754763
 30
0.0
 10
-91.68264456061553
 20
24.00467377890127
 30
0.0
 10
-91.68264456061553
 20
24.00467377890127
 30
0.0
 10
-91.68264456061553
 20
-83.99532270442496
 30
0.0
 10
-91.68264456061553
 20
-83.99532270442496
 30
0.0
 10
-91.68264456061553
 20
-88.41360070307132
 30
0.0
 10
-88.10092255926226
 20
-91.99532270442396
 30
0.0
 10
-83.6826445606159
 20
-91.99532270442396
 30
0.0
 10
-83.6826445606159
 20
-91.99532270442396
 30
0.0
 10
20.31735543938457
 20
-91.99532270442396
 30
0.0
 10
20.31735543938457
 20
-91.99532270442396
 30
0.0
 10
24.73563343803093
 20
-91.99532270442396
 30
0.0
 10
28.31735543938421
 20
-88.41360070307132
 30
0.0
 10
28.31735543938421
 20
-83.99532270442496
 30
0.0
 10
28.31735543938421
 20
-83.99532270442496
 30
0.0
 10
28.31735543938421
 20
24.00467377890127
 30
0.0
 10
28.31735543938421
 20
24.00467377890127
 30
0.0
 10
28.31735543938421
 20
28.42295177754763
 30
0.0
 10
24.73563343803029
 20
32.00467377890156
 30
0.0
 10
20.31735543938393
 20
32.00467377890156
 30
0.0
  0
ENDBLK
  5
55
330
52
100
AcDbEntity
  8
0
100
AcDbBlockEnd
  0
BLOCK
  5
59
330
57
100
AcDbEntity
  8
0
100
AcDbBlockBegin
  2
BLOCK_3
 70
     0
 10
0.0
 20
0.0
 30
0.0
  3
BLOCK_3
  1

  0
POLYLINE
  5
5B
330
57
100
AcDbEntity
  8
0
 62
     7
100
AcDb2dPolyline
 66
     1
 10
0.0
 20
0.0
 30
0.0
  0
VERTEX
  5
5C
330
5B
100
AcDbEntity
  8
0
 62
     7
100
AcDbVertex
100
AcDb2dVertex
 10
-91.68264456061553
 20
-29.99532446276185
 30
0.0
  0
VERTEX
  5
5D
330
5B
100
AcDbEntity
  8
0
 62
     7
100
AcDbVertex
100
AcDb2dVertex
 10
28.31735543938421
 20
-29.99532446276185
 30
0.0
  0
SEQEND
  5
5E
330
5B
100
AcDbEntity
  8
0
 62
     7
  0
ENDBLK
  5
5A
330
57
100
AcDbEntity
  8
0
100
AcDbBlockEnd
  0
BLOCK
  5
61
330
5F
100
AcDbEntity
  8
0
100
AcDbBlockBegin
  2
BLOCK_4
 70
     0
 10
0.0
 20
0.0
 30
0.0
  3
BLOCK_4
  1

  0
POLYLINE
  5
63
330
5F
100
AcDbEntity
  8
0
 62
     7
100
AcDb2dPolyline
 66
     1
 10
0.0
 20
0.0
 30
0.0
  0
VERTEX
  5
64
330
63
100
AcDbEntity
  8
0
 62
     7
100
AcDbVertex
100
AcDb2dVertex
 10
-31.68264456061534
 20
120.0046755372383
 30
0.0
  0
VERTEX
  5
65
330
63
100
AcDbEntity
  8
0
 62
     7
100
AcDbVertex
100
AcDb2dVertex
 10
-31.68264456061598
 20
-29.99532446276185
 30
0.0
  0
SEQEND
  5
66
330
63
100
AcDbEntity
  8
0
 62
     7
  0
ENDBLK
  5
62
330
5F
100
AcDbEntity
  8
0
100
AcDbBlockEnd
  0
BLOCK
  5
69
330
67
100
AcDbEntity
  8
0
100
AcDbBlockBegin
  2
BLOCK_5
 70
     0
 10
0.0
 20
0.0
 30
0.0
  3
BLOCK_5
  1

  0
POLYLINE
  5
6B
330
67
100
AcDbEntity
  8
0
 62
     7
100
AcDb2dPolyline
 66
     1
 10
0.0
 20
0.0
 30
0.0
  0
VERTEX
  5
6C
330
6B
100
AcDbEntity
  8
0
 62
     7
100
AcDbVertex
100
AcDb2dVertex
 10
-10.88264456061589
 20
32.00467377890156
 30
0.0
  0
VERTEX
  5
6D
330
6B
100
AcDbEntity
  8
0
 62
     7
100
AcDbVertex
100
AcDb2dVertex
 10
-12.48264456061595
 20
32.00467377890156
 30
0.0
  0
VERTEX
  5
6E
330
6B
100
AcDbEntity
  8
0
 62
     7
100
AcDbVertex
100
AcDb2dVertex
 10
-12.48264456061595
 20
2.004673778901779
 30
0.0
  0
VERTEX
  5
6F
330
6B
100
AcDbEntity
  8
0
 62
     7
100
AcDbVertex
100
AcDb2dVertex
 10
-10.88264456061589
 20
2.004673778901779
 30
0.0
  0
VERTEX
  5
70
330
6B
100
AcDbEntity
  8
0
 62
     7
100
AcDbVertex
100
AcDb2dVertex
 10
-10.88264456061589
 20
32.00467377890156
 30
0.0
  0
SEQEND
  5
71
330
6B
100
AcDbEntity
  8
0
 62
     7
  0
ENDBLK
  5
6A
330
67
100
AcDbEntity
  8
0
100
AcDbBlockEnd
  0
BLOCK
  5
74
330
72
100
AcDbEntity
  8
0
100
AcDbBlockBegin
  2
BLOCK_6
 70
     0
 10
0.0
 20
0.0
 30
0.0
  3
BLOCK_6
  1

  0
POLYLINE
  5
76
330
72
100
AcDbEntity
  8
0
 62
     7
100
AcDb2dPolyline
 66
     1
 10
0.0
 20
0.0
 30
0.0
  0
VERTEX
  5
77
330
76
100
AcDbEntity
  8
0
 62
     7
100
AcDbVertex
100
AcDb2dVertex
 10
-91.68264456061553
 20
-5.374906118389806
 30
0.0
  0
VERTEX
  5
78
330
76
100
AcDbEntity
  8
0
 62
     7
100
AcDbVertex
100
AcDb2dVertex
 10
-51.68264456061541
 20
-5.374906118389806
 30
0.0
  0
SEQEND
  5
79
330
76
100
AcDbEntity
  8
0
 62
     7
  0
ENDBLK
  5
75
330
72
100
AcDbEntity
  8
0
100
AcDbBlockEnd
  0
BLOCK
  5
7C
330
7A
100
AcDbEntity
  8
0
100
AcDbBlockBegin
  2
BLOCK_7
 70
     0
 10
0.0
 20
0.0
 30
0.0
  3
BLOCK_7
  1

  0
POLYLINE
  5
7E
330
7A
100
AcDbEntity
  8
0
 62
     7
100
AcDb2dPolyline
 66
     1
 10
0.0
 20
0.0
 30
0.0
  0
VERTEX
  5
7F
330
7E
100
AcDbEntity
  8
0
 62
     7
100
AcDbVertex
100
AcDb2dVertex
 10
-51.68264456061541
 20
-5.374906118389806
 30
0.0
  0
VERTEX
  5
80
330
7E
100
AcDbEntity
  8
0
 62
     7
100
AcDbVertex
100
AcDb2dVertex
 10
-11.68264456061592
 20
-5.374906118389806
 30
0.0
  0
SEQEND
  5
81
330
7E
100
AcDbEntity
  8
0
 62
     7
  0
ENDBLK
  5
7D
330
7A
100
AcDbEntity
  8
0
100
AcDbBlockEnd
  0
BLOCK
  5
84
330
82
100
AcDbEntity
  8
0
100
AcDbBlockBegin
  2
BLOCK_8
 70
     0
 10
0.0
 20
0.0
 30
0.0
  3
BLOCK_8
  1

  0
POLYLINE
  5
86
330
82
100
AcDbEntity
  8
0
 62
     7
100
AcDb2dPolyline
 66
     1
 10
0.0
 20
0.0
 30
0.0
  0
VERTEX
  5
87
330
86
100
AcDbEntity
  8
0
 62
     7
100
AcDbVertex
100
AcDb2dVertex
 10
-11.68264456061592
 20
-5.374906118389806
 30
0.0
  0
VERTEX
  5
88
330
86
100
AcDbEntity
  8
0
 62
     7
100
AcDbVertex
100
AcDb2dVertex
 10
28.31735543938421
 20
-5.374906118389806
 30
0.0
  0
SEQEND
  5
89
330
86
100
AcDbEntity
  8
0
 62
     7
  0
ENDBLK
  5
85
330
82
100
AcDbEntity
  8
0
100
AcDbBlockEnd
  0
BLOCK
  5
8C
330
8A
100
AcDbEntity
  8
0
100
AcDbBlockBegin
  2
BLOCK_9
 70
     0
 10
0.0
 20
0.0
 30
0.0
  3
BLOCK_9
  1

  0
POLYLINE
  5
8E
330
8A
100
AcDbEntity
  8
0
 62
     7
100
AcDb2dPolyline
 66
     1
 10
0.0
 20
0.0
 30
0.0
  0
VERTEX
  5
8F
330
8E
100
AcDbEntity
  8
0
 62
     7
100
AcDbVertex
100
AcDb2dVertex
 10
-11.68264456061592
 20
2.004673778901779
 30
0.0
  0
VERTEX
  5
90
330
8E
100
AcDbEntity
  8
0
 62
     7
100
AcDbVertex
100
AcDb2dVertex
 10
-11.68264456061592
 20
-5.374906118389806
 30
0.0
  0
SEQEND
  5
91
330
8E
100
AcDbEntity
  8
0
 62
     7
  0
ENDBLK
  5
8D
330
8A
100
AcDbEntity
  8
0
100
AcDbBlockEnd
  0
BLOCK
  5
94
330
92
100
AcDbEntity
  8
0
100
AcDbBlockBegin
  2
BLOCK_10
 70
     0
 10
0.0
 20
0.0
 30
0.0
  3
BLOCK_10
  1

  0
POLYLINE
  5
96
330
92
100
AcDbEntity
  8
0
 62
     7
100
AcDb2dPolyline
 66
     1
 10
0.0
 20
0.0
 30
0.0
  0
VERTEX
  5
97
330
96
100
AcDbEntity
  8
0
 62
     7
100
AcDbVertex
100
AcDb2dVertex
 10
-91.68264456061553
 20
-49.19532446276124
 30
0.0
  0
VERTEX
  5
98
330
96
100
AcDbEntity
  8
0
 62
     7
100
AcDbVertex
100
AcDb2dVertex
 10
-91.68264456061553
 20
-50.79532446276129
 30
0.0
  0
VERTEX
  5
99
330
96
100
AcDbEntity
  8
0
 62
     7
100
AcDbVertex
100
AcDb2dVertex
 10
-61.68264456061576
 20
-50.79532446276129
 30
0.0
  0
VERTEX
  5
9A
330
96
100
AcDbEntity
  8
0
 62
     7
100
AcDbVertex
100
AcDb2dVertex
 10
-61.68264456061576
 20
-49.19532446276124
 30
0.0
  0
VERTEX
  5
9B
330
96
100
AcDbEntity
  8
0
 62
     7
100
AcDbVertex
100
AcDb2dVertex
 10
-91.68264456061553
 20
-49.19532446276124
 30
0.0
  0
SEQEND
  5
9C
330
96
100
AcDbEntity
  8
0
 62
     7
  0
ENDBLK
  5
95
330
92
100
AcDbEntity
  8
0
100
AcDbBlockEnd
  0
BLOCK
  5
9F
330
9D
100
AcDbEntity
  8
0
100
AcDbBlockBegin
  2
BLOCK_11
 70
     0
 10
0.0
 20
0.0
 30
0.0
  3
BLOCK_11
  1

  0
POLYLINE
  5
A1
330
9D
100
AcDbEntity
  8
0
 62
     7
100
AcDb2dPolyline
 66
     1
 10
0.0
 20
0.0
 30
0.0
  0
VERTEX
  5
A2
330
A1
100
AcDbEntity
  8
0
 62
     7
100
AcDbVertex
100
AcDb2dVertex
 10
-53.43044471093284
 20
2.004673778901779
 30
0.0
  0
VERTEX
  5
A3
330
A1
100
AcDbEntity
  8
0
 62
     7
100
AcDbVertex
100
AcDb2dVertex
 10
-51.83044471093278
 20
2.004673778901779
 30
0.0
  0
VERTEX
  5
A4
330
A1
100
AcDbEntity
  8
0
 62
     7
100
AcDbVertex
100
AcDb2dVertex
 10
-51.83044471093278
 20
32.00467377890156
 30
0.0
  0
VERTEX
  5
A5
330
A1
100
AcDbEntity
  8
0
 62
     7
100
AcDbVertex
100
AcDb2dVertex
 10
-53.43044471093284
 20
32.00467377890156
 30
0.0
  0
VERTEX
  5
A6
330
A1
100
AcDbEntity
  8
0
 62
     7
100
AcDbVertex
100
AcDb2dVertex
 10
-53.43044471093284
 20
2.004673778901779
 30
0.0
  0
SEQEND
  5
A7
330
A1
100
AcDbEntity
  8
0
 62
     7
  0
ENDBLK
  5
A0
330
9D
100
AcDbEntity
  8
0
100
AcDbBlockEnd
  0
BLOCK
  5
AA
330
A8
100
AcDbEntity
  8
0
100
AcDbBlockBegin
  2
BLOCK_12
 70
     0
 10
0.0
 20
0.0
 30
0.0
  3
BLOCK_12
  1

  0
POLYLINE
  5
AC
330
A8
100
AcDbEntity
  8
0
 62
     7
100
AcDb2dPolyline
 66
     1
 10
0.0
 20
0.0
 30
0.0
  0
VERTEX
  5
AD
330
AC
100
AcDbEntity
  8
0
 62
     7
100
AcDbVertex
100
AcDb2dVertex
 10
-52.48264456061607
 20
-91.99532270442396
 30
0.0
  0
VERTEX
  5
AE
330
AC
100
AcDbEntity
  8
0
 62
     7
100
AcDbVertex
100
AcDb2dVertex
 10
-50.88264456061602
 20
-91.99532270442396
 30
0.0
  0
VERTEX
  5
AF
330
AC
100
AcDbEntity
  8
0
 62
     7
100
AcDbVertex
100
AcDb2dVertex
 10
-50.88264456061602
 20
-61.99532270442418
 30
0.0
  0
VERTEX
  5
B0
330
AC
100
AcDbEntity
  8
0
 62
     7
100
AcDbVertex
100
AcDb2dVertex
 10
-52.48264456061607
 20
-61.99532270442418
 30
0.0
  0
VERTEX
  5
B1
330
AC
100
AcDbEntity
  8
0
 62
     7
100
AcDbVertex
100
AcDb2dVertex
 10
-52.48264456061607
 20
-91.99532270442396
 30
0.0
  0
SEQEND
  5
B2
330
AC
100
AcDbEntity
  8
0
 62
     7
  0
ENDBLK
  5
AB
330
A8
100
AcDbEntity
  8
0
100
AcDbBlockEnd
  0
BLOCK
  5
B5
330
B3
100
AcDbEntity
  8
0
100
AcDbBlockBegin
  2
BLOCK_13
 70
     0
 10
0.0
 20
0.0
 30
0.0
  3
BLOCK_13
  1

  0
POLYLINE
  5
B7
330
B3
100
AcDbEntity
  8
0
 62
     7
100
AcDb2dPolyline
 66
     1
 10
0.0
 20
0.0
 30
0.0
  0
VERTEX
  5
B8
330
B7
100
AcDbEntity
  8
0
 62
     7
100
AcDbVertex
100
AcDb2dVertex
 10
-12.48264456061595
 20
-91.99532270442396
 30
0.0
  0
VERTEX
  5
B9
330
B7
100
AcDbEntity
  8
0
 62
     7
100
AcDbVertex
100
AcDb2dVertex
 10
-10.88264456061589
 20
-91.99532270442396
 30
0.0
  0
VERTEX
  5
BA
330
B7
100
AcDbEntity
  8
0
 62
     7
100
AcDbVertex
100
AcDb2dVertex
 10
-10.88264456061589
 20
-61.99532270442418
 30
0.0
  0
VERTEX
  5
BB
330
B7
100
AcDbEntity
  8
0
 62
     7
100
AcDbVertex
100
AcDb2dVertex
 10
-12.48264456061595
 20
-61.99532270442418
 30
0.0
  0
VERTEX
  5
BC
330
B7
100
AcDbEntity
  8
0
 62
     7
100
AcDbVertex
100
AcDb2dVertex
 10
-12.48264456061595
 20
-91.99532270442396
 30
0.0
  0
SEQEND
  5
BD
330
B7
100
AcDbEntity
  8
0
 62
     7
  0
ENDBLK
  5
B6
330
B3
100
AcDbEntity
  8
0
100
AcDbBlockEnd
  0
BLOCK
  5
C0
330
BE
100
AcDbEntity
  8
0
100
AcDbBlockBegin
  2
BLOCK_14
 70
     0
 10
0.0
 20
0.0
 30
0.0
  3
BLOCK_14
  1

  0
POLYLINE
  5
C2
330
BE
100
AcDbEntity
  8
0
 62
     7
100
AcDb2dPolyline
 66
     1
 10
0.0
 20
0.0
 30
0.0
  0
VERTEX
  5
C3
330
C2
100
AcDbEntity
  8
0
 62
     7
100
AcDbVertex
100
AcDb2dVertex
 10
-51.68264456061605
 20
-91.99532270442396
 30
0.0
  0
VERTEX
  5
C4
330
C2
100
AcDbEntity
  8
0
 62
     7
100
AcDbVertex
100
AcDb2dVertex
 10
-11.68264456061592
 20
-91.99532270442396
 30
0.0
  0
SEQEND
  5
C5
330
C2
100
AcDbEntity
  8
0
 62
     7
  0
ENDBLK
  5
C1
330
BE
100
AcDbEntity
  8
0
100
AcDbBlockEnd
  0
BLOCK
  5
C8
330
C6
100
AcDbEntity
  8
0
100
AcDbBlockBegin
  2
BLOCK_15
 70
     0
 10
0.0
 20
0.0
 30
0.0
  3
BLOCK_15
  1

  0
POLYLINE
  5
CA
330
C6
100
AcDbEntity
  8
0
 62
     7
100
AcDb2dPolyline
 66
     1
 10
0.0
 20
0.0
 30
0.0
  0
VERTEX
  5
CB
330
CA
100
AcDbEntity
  8
0
 62
     7
100
AcDbVertex
100
AcDb2dVertex
 10
-31.68264456061598
 20
-91.99532270442396
 30
0.0
  0
VERTEX
  5
CC
330
CA
100
AcDbEntity
  8
0
 62
     7
100
AcDbVertex
100
AcDb2dVertex
 10
-31.68264456061598
 20
-29.99532446276185
 30
0.0
  0
SEQEND
  5
CD
330
CA
100
AcDbEntity
  8
0
 62
     7
  0
ENDBLK
  5
C9
330
C6
100
AcDbEntity
  8
0
100
AcDbBlockEnd
  0
BLOCK
  5
D0
330
CE
100
AcDbEntity
  8
0
100
AcDbBlockBegin
  2
BLOCK_16
 70
     0
 10
0.0
 20
0.0
 30
0.0
  3
BLOCK_16
  1

  0
POLYLINE
  5
D2
330
CE
100
AcDbEntity
  8
0
 62
     7
100
AcDb2dPolyline
 66
     1
 10
0.0
 20
0.0
 30
0.0
  0
VERTEX
  5
D3
330
D2
100
AcDbEntity
  8
0
 62
     7
100
AcDbVertex
100
AcDb2dVertex
 10
-61.68264456061576
 20
-10.79532446276245
 30
0.0
  0
VERTEX
  5
D4
330
D2
100
AcDbEntity
  8
0
 62
     7
100
AcDbVertex
100
AcDb2dVertex
 10
-61.68264456061576
 20
-9.195324462762395
 30
0.0
  0
VERTEX
  5
D5
330
D2
100
AcDbEntity
  8
0
 62
     7
100
AcDbVertex
100
AcDb2dVertex
 10
-91.68264456061553
 20
-9.195324462762395
 30
0.0
  0
VERTEX
  5
D6
330
D2
100
AcDbEntity
  8
0
 62
     7
100
AcDbVertex
100
AcDb2dVertex
 10
-91.68264456061553
 20
-10.79532446276245
 30
0.0
  0
VERTEX
  5
D7
330
D2
100
AcDbEntity
  8
0
 62
     7
100
AcDbVertex
100
AcDb2dVertex
 10
-61.68264456061576
 20
-10.79532446276245
 30
0.0
  0
SEQEND
  5
D8
330
D2
100
AcDbEntity
  8
0
 62
     7
  0
ENDBLK
  5
D1
330
CE
100
AcDbEntity
  8
0
100
AcDbBlockEnd
  0
BLOCK
  5
DB
330
D9
100
AcDbEntity
  8
0
100
AcDbBlockBegin
  2
BLOCK_17
 70
     0
 10
0.0
 20
0.0
 30
0.0
  3
BLOCK_17
  1

  0
POLYLINE
  5
DD
330
D9
100
AcDbEntity
  8
0
 62
     7
100
AcDb2dPolyline
 66
     1
 10
0.0
 20
0.0
 30
0.0
  0
VERTEX
  5
DE
330
DD
100
AcDbEntity
  8
0
 62
     7
100
AcDbVertex
100
AcDb2dVertex
 10
-61.68264456061576
 20
-49.99532446276127
 30
0.0
  0
VERTEX
  5
DF
330
DD
100
AcDbEntity
  8
0
 62
     7
100
AcDbVertex
100
AcDb2dVertex
 10
-61.68264456061576
 20
-9.995324462762422
 30
0.0
  0
SEQEND
  5
E0
330
DD
100
AcDbEntity
  8
0
 62
     7
  0
ENDBLK
  5
DC
330
D9
100
AcDbEntity
  8
0
100
AcDbBlockEnd
  0
BLOCK
  5
E3
330
E1
100
AcDbEntity
  8
0
100
AcDbBlockBegin
  2
BLOCK_18
 70
     0
 10
0.0
 20
0.0
 30
0.0
  3
BLOCK_18
  1

  0
POLYLINE
  5
E5
330
E1
100
AcDbEntity
  8
0
 62
     7
100
AcDb2dPolyline
 66
     1
 10
0.0
 20
0.0
 30
0.0
  0
VERTEX
  5
E6
330
E5
100
AcDbEntity
  8
0
 62
     7
100
AcDbVertex
100
AcDb2dVertex
 10
-1.682644560615566
 20
-49.19532446276124
 30
0.0
  0
VERTEX
  5
E7
330
E5
100
AcDbEntity
  8
0
 62
     7
100
AcDbVertex
100
AcDb2dVertex
 10
-1.682644560615566
 20
-50.79532446276129
 30
0.0
  0
VERTEX
  5
E8
330
E5
100
AcDbEntity
  8
0
 62
     7
100
AcDbVertex
100
AcDb2dVertex
 10
28.31735543938421
 20
-50.79532446276129
 30
0.0
  0
VERTEX
  5
E9
330
E5
100
AcDbEntity
  8
0
 62
     7
100
AcDbVertex
100
AcDb2dVertex
 10
28.31735543938421
 20
-49.19532446276124
 30
0.0
  0
VERTEX
  5
EA
330
E5
100
AcDbEntity
  8
0
 62
     7
100
AcDbVertex
100
AcDb2dVertex
 10
-1.682644560615566
 20
-49.19532446276124
 30
0.0
  0
SEQEND
  5
EB
330
E5
100
AcDbEntity
  8
0
 62
     7
  0
ENDBLK
  5
E4
330
E1
100
AcDbEntity
  8
0
100
AcDbBlockEnd
  0
BLOCK
  5
EE
330
EC
100
AcDbEntity
  8
0
100
AcDbBlockBegin
  2
BLOCK_19
 70
     0
 10
0.0
 20
0.0
 30
0.0
  3
BLOCK_19
  1

  0
POLYLINE
  5
F0
330
EC
100
AcDbEntity
  8
0
 62
     7
100
AcDb2dPolyline
 66
     1
 10
0.0
 20
0.0
 30
0.0
  0
VERTEX
  5
F1
330
F0
100
AcDbEntity
  8
0
 62
     7
100
AcDbVertex
100
AcDb2dVertex
 10
-1.682644560615566
 20
-9.195324462762395
 30
0.0
  0
VERTEX
  5
F2
330
F0
100
AcDbEntity
  8
0
 62
     7
100
AcDbVertex
100
AcDb2dVertex
 10
-1.682644560615566
 20
-10.79532446276245
 30
0.0
  0
VERTEX
  5
F3
330
F0
100
AcDbEntity
  8
0
 62
     7
100
AcDbVertex
100
AcDb2dVertex
 10
28.31735543938421
 20
-10.79532446276245
 30
0.0
  0
VERTEX
  5
F4
330
F0
100
AcDbEntity
  8
0
 62
     7
100
AcDbVertex
100
AcDb2dVertex
 10
28.31735543938421
 20
-9.195324462762395
 30
0.0
  0
VERTEX
  5
F5
330
F0
100
AcDbEntity
  8
0
 62
     7
100
AcDbVertex
100
AcDb2dVertex
 10
-1.682644560615566
 20
-9.195324462762395
 30
0.0
  0
SEQEND
  5
F6
330
F0
100
AcDbEntity
  8
0
 62
     7
  0
ENDBLK
  5
EF
330
EC
100
AcDbEntity
  8
0
100
AcDbBlockEnd
  0
BLOCK
  5
F9
330
F7
100
AcDbEntity
  8
0
100
AcDbBlockBegin
  2
BLOCK_20
 70
     0
 10
0.0
 20
0.0
 30
0.0
  3
BLOCK_20
  1

  0
POLYLINE
  5
FB
330
F7
100
AcDbEntity
  8
0
 62
     7
100
AcDb2dPolyline
 66
     1
 10
0.0
 20
0.0
 30
0.0
  0
VERTEX
  5
FC
330
FB
100
AcDbEntity
  8
0
 62
     7
100
AcDbVertex
100
AcDb2dVertex
 10
-1.682644560615566
 20
-9.995324462762422
 30
0.0
  0
VERTEX
  5
FD
330
FB
100
AcDbEntity
  8
0
 62
     7
100
AcDbVertex
100
AcDb2dVertex
 10
-1.682644560615566
 20
-49.99532446276127
 30
0.0
  0
SEQEND
  5
FE
330
FB
100
AcDbEntity
  8
0
 62
     7
  0
ENDBLK
  5
FA
330
F7
100
AcDbEntity
  8
0
100
AcDbBlockEnd
  0
BLOCK
  5
101
330
FF
100
AcDbEntity
  8
0
100
AcDbBlockBegin
  2
BLOCK_21
 70
     0
 10
0.0
 20
0.0
 30
0.0
  3
BLOCK_21
  1

  0
SPLINE
  5
103
330
FF
100
AcDbEntity
  8
0
 62
     7
100
AcDbSpline
210
0.0
220
0.0
230
1.0
 70
    11
 71
     3
 72
    29
 73
    25
 74
     0
 42
0.0000000001
 43
0.0000000001
 12
1.0
 22
0.0
 32
0.0
 13
1.0
 23
0.0
 33
0.0
 40
0.0
 40
0.0
 40
0.0
 40
0.0
 40
1.0
 40
1.0
 40
1.0
 40
2.0
 40
2.0
 40
2.0
 40
3.0
 40
3.0
 40
3.0
 40
4.0
 40
4.0
 40
4.0
 40
5.0
 40
5.0
 40
5.0
 40
6.0
 40
6.0
 40
6.0
 40
7.0
 40
7.0
 40
7.0
 40
8.0
 40
8.0
 40
8.0
 40
8.0
 10
-167.0162340238655
 20
-31.35999392123026
 30
0.0
 10
-167.0162340238655
 20
-26.9417159225839
 30
0.0
 10
-163.4345120225118
 20
-23.35999392122997
 30
0.0
 10
-159.0162340238655
 20
-23.35999392122997
 30
0.0
 10
-159.0162340238655
 20
-23.35999392122997
 30
0.0
 10
-115.0162340238655
 20
-23.35999392122997
 30
0.0
 10
-115.0162340238655
 20
-23.35999392122997
 30
0.0
 10
-110.5979560252192
 20
-23.35999392122997
 30
0.0
 10
-107.0162340238656
 20
-26.9417159225839
 30
0.0
 10
-107.0162340238656
 20
-31.35999392123026
 30
0.0
 10
-107.0162340238656
 20
-31.35999392123026
 30
0.0
 10
-107.0162340238656
 20
-75.35999392122925
 30
0.0
 10
-107.0162340238656
 20
-75.35999392122925
 30
0.0
 10
-107.0162340238656
 20
-79.7782719198756
 30
0.0
 10
-110.5979560252192
 20
-83.35999392122953
 30
0.0
 10
-115.0162340238655
 20
-83.35999392122953
 30
0.0
 10
-115.0162340238655
 20
-83.35999392122953
 30
0.0
 10
-159.0162340238655
 20
-83.35999392122953
 30
0.0
 10
-159.0162340238655
 20
-83.35999392122953
 30
0.0
 10
-163.4345120225118
 20
-83.35999392122953
 30
0.0
 10
-167.0162340238655
 20
-79.7782719198756
 30
0.0
 10
-167.0162340238655
 20
-75.35999392122925
 30
0.0
 10
-167.0162340238655
 20
-75.35999392122925
 30
0.0
 10
-167.0162340238655
 20
-31.35999392123026
 30
0.0
 10
-167.0162340238655
 20
-31.35999392123026
 30
0.0
  0
ENDBLK
  5
102
330
FF
100
AcDbEntity
  8
0
100
AcDbBlockEnd
  0
BLOCK
  5
106
330
104
100
AcDbEntity
  8
0
100
AcDbBlockBegin
  2
BLOCK_22
 70
     0
 10
0.0
 20
0.0
 30
0.0
  3
BLOCK_22
  1

  0
POLYLINE
  5
108
330
104
100
AcDbEntity
  8
0
 62
     7
100
AcDb2dPolyline
 66
     1
 10
0.0
 20
0.0
 30
0.0
  0
VERTEX
  5
109
330
108
100
AcDbEntity
  8
0
 62
     7
100
AcDbVertex
100
AcDb2dVertex
 10
-147.0162340238657
 20
-33.9942007700496
 30
0.0
  0
VERTEX
  5
10A
330
108
100
AcDbEntity
  8
0
 62
     7
100
AcDbVertex
100
AcDb2dVertex
 10
-167.0162340238655
 20
-33.9942007700496
 30
0.0
  0
SEQEND
  5
10B
330
108
100
AcDbEntity
  8
0
 62
     7
  0
ENDBLK
  5
107
330
104
100
AcDbEntity
  8
0
100
AcDbBlockEnd
  0
BLOCK
  5
10E
330
10C
100
AcDbEntity
  8
0
100
AcDbBlockBegin
  2
BLOCK_23
 70
     0
 10
0.0
 20
0.0
 30
0.0
  3
BLOCK_23
  1

  0
POLYLINE
  5
110
330
10C
100
AcDbEntity
  8
0
 62
     7
100
AcDb2dPolyline
 66
     1
 10
0.0
 20
0.0
 30
0.0
  0
VERTEX
  5
111
330
110
100
AcDbEntity
  8
0
 62
     7
100
AcDbVertex
100
AcDb2dVertex
 10
-127.8162340238657
 20
-53.35999392122975
 30
0.0
  0
VERTEX
  5
112
330
110
100
AcDbEntity
  8
0
 62
     7
100
AcDbVertex
100
AcDb2dVertex
 10
-126.2162340238656
 20
-53.35999392122975
 30
0.0
  0
VERTEX
  5
113
330
110
100
AcDbEntity
  8
0
 62
     7
100
AcDbVertex
100
AcDb2dVertex
 10
-126.2162340238656
 20
-23.35999392122997
 30
0.0
  0
VERTEX
  5
114
330
110
100
AcDbEntity
  8
0
 62
     7
100
AcDbVertex
100
AcDb2dVertex
 10
-127.8162340238657
 20
-23.35999392122997
 30
0.0
  0
VERTEX
  5
115
330
110
100
AcDbEntity
  8
0
 62
     7
100
AcDbVertex
100
AcDb2dVertex
 10
-127.8162340238657
 20
-53.35999392122975
 30
0.0
  0
SEQEND
  5
116
330
110
100
AcDbEntity
  8
0
 62
     7
  0
ENDBLK
  5
10F
330
10C
100
AcDbEntity
  8
0
100
AcDbBlockEnd
  0
BLOCK
  5
119
330
117
100
AcDbEntity
  8
0
100
AcDbBlockBegin
  2
BLOCK_24
 70
     0
 10
0.0
 20
0.0
 30
0.0
  3
BLOCK_24
  1

  0
POLYLINE
  5
11B
330
117
100
AcDbEntity
  8
0
 62
     7
100
AcDb2dPolyline
 66
     1
 10
0.0
 20
0.0
 30
0.0
  0
VERTEX
  5
11C
330
11B
100
AcDbEntity
  8
0
 62
     7
100
AcDbVertex
100
AcDb2dVertex
 10
-127.0162340238656
 20
-23.35999392122997
 30
0.0
  0
VERTEX
  5
11D
330
11B
100
AcDbEntity
  8
0
 62
     7
100
AcDbVertex
100
AcDb2dVertex
 10
-127.0162340238656
 20
-53.35999392122975
 30
0.0
  0
SEQEND
  5
11E
330
11B
100
AcDbEntity
  8
0
 62
     7
  0
ENDBLK
  5
11A
330
117
100
AcDbEntity
  8
0
100
AcDbBlockEnd
  0
BLOCK
  5
121
330
11F
100
AcDbEntity
  8
0
100
AcDbBlockBegin
  2
BLOCK_25
 70
     0
 10
0.0
 20
0.0
 30
0.0
  3
BLOCK_25
  1

  0
POLYLINE
  5
123
330
11F
100
AcDbEntity
  8
0
 62
     7
100
AcDb2dPolyline
 66
     1
 10
0.0
 20
0.0
 30
0.0
  0
VERTEX
  5
124
330
123
100
AcDbEntity
  8
0
 62
     7
100
AcDbVertex
100
AcDb2dVertex
 10
-107.0162340238656
 20
-33.9942007700496
 30
0.0
  0
VERTEX
  5
125
330
123
100
AcDbEntity
  8
0
 62
     7
100
AcDbVertex
100
AcDb2dVertex
 10
-127.0162340238656
 20
-33.9942007700496
 30
0.0
  0
SEQEND
  5
126
330
123
100
AcDbEntity
  8
0
 62
     7
  0
ENDBLK
  5
122
330
11F
100
AcDbEntity
  8
0
100
AcDbBlockEnd
  0
BLOCK
  5
129
330
127
100
AcDbEntity
  8
0
100
AcDbBlockBegin
  2
BLOCK_26
 70
     0
 10
0.0
 20
0.0
 30
0.0
  3
BLOCK_26
  1

  0
POLYLINE
  5
12B
330
127
100
AcDbEntity
  8
0
 62
     7
100
AcDb2dPolyline
 66
     1
 10
0.0
 20
0.0
 30
0.0
  0
VERTEX
  5
12C
330
12B
100
AcDbEntity
  8
0
 62
     7
100
AcDbVertex
100
AcDb2dVertex
 10
-107.0162340238656
 20
-33.9942007700496
 30
0.0
  0
VERTEX
  5
12D
330
12B
100
AcDbEntity
  8
0
 62
     7
100
AcDbVertex
100
AcDb2dVertex
 10
-127.0162340238656
 20
-33.9942007700496
 30
0.0
  0
SEQEND
  5
12E
330
12B
100
AcDbEntity
  8
0
 62
     7
  0
ENDBLK
  5
12A
330
127
100
AcDbEntity
  8
0
100
AcDbBlockEnd
  0
BLOCK
  5
131
330
12F
100
AcDbEntity
  8
0
100
AcDbBlockBegin
  2
BLOCK_27
 70
     0
 10
0.0
 20
0.0
 30
0.0
  3
BLOCK_27
  1

  0
POLYLINE
  5
133
330
12F
100
AcDbEntity
  8
0
 62
     7
100
AcDb2dPolyline
 66
     1
 10
0.0
 20
0.0
 30
0.0
  0
VERTEX
  5
134
330
133
100
AcDbEntity
  8
0
 62
     7
100
AcDbVertex
100
AcDb2dVertex
 10
-147.0162340238657
 20
-45.46587437783723
 30
0.0
  0
VERTEX
  5
135
330
133
100
AcDbEntity
  8
0
 62
     7
100
AcDbVertex
100
AcDb2dVertex
 10
-127.0162340238656
 20
-45.46587437783723
 30
0.0
  0
SEQEND
  5
136
330
133
100
AcDbEntity
  8
0
 62
     7
  0
ENDBLK
  5
132
330
12F
100
AcDbEntity
  8
0
100
AcDbBlockEnd
  0
BLOCK
  5
139
330
137
100
AcDbEntity
  8
0
100
AcDbBlockBegin
  2
BLOCK_28
 70
     0
 10
0.0
 20
0.0
 30
0.0
  3
BLOCK_28
  1

  0
POLYLINE
  5
13B
330
137
100
AcDbEntity
  8
0
 62
     7
100
AcDb2dPolyline
 66
     1
 10
0.0
 20
0.0
 30
0.0
  0
VERTEX
  5
13C
330
13B
100
AcDbEntity
  8
0
 62
     7
100
AcDbVertex
100
AcDb2dVertex
 10
-126.2162340238656
 20
-23.35999392122997
 30
0.0
  0
VERTEX
  5
13D
330
13B
100
AcDbEntity
  8
0
 62
     7
100
AcDbVertex
100
AcDb2dVertex
 10
-126.2162340238656
 20
-53.35999392122975
 30
0.0
  0
SEQEND
  5
13E
330
13B
100
AcDbEntity
  8
0
 62
     7
  0
ENDBLK
  5
13A
330
137
100
AcDbEntity
  8
0
100
AcDbBlockEnd
  0
BLOCK
  5
141
330
13F
100
AcDbEntity
  8
0
100
AcDbBlockBegin
  2
BLOCK_29
 70
     0
 10
0.0
 20
0.0
 30
0.0
  3
BLOCK_29
  1

  0
POLYLINE
  5
143
330
13F
100
AcDbEntity
  8
0
 62
     7
100
AcDb2dPolyline
 66
     1
 10
0.0
 20
0.0
 30
0.0
  0
VERTEX
  5
144
330
143
100
AcDbEntity
  8
0
 62
     7
100
AcDbVertex
100
AcDb2dVertex
 10
-146.2162340238657
 20
-23.35999392122997
 30
0.0
  0
VERTEX
  5
145
330
143
100
AcDbEntity
  8
0
 62
     7
100
AcDbVertex
100
AcDb2dVertex
 10
-146.2162340238657
 20
-53.35999392122975
 30
0.0
  0
SEQEND
  5
146
330
143
100
AcDbEntity
  8
0
 62
     7
  0
ENDBLK
  5
142
330
13F
100
AcDbEntity
  8
0
100
AcDbBlockEnd
  0
BLOCK
  5
149
330
147
100
AcDbEntity
  8
0
100
AcDbBlockBegin
  2
BLOCK_30
 70
     0
 10
0.0
 20
0.0
 30
0.0
  3
BLOCK_30
  1

  0
POLYLINE
  5
14B
330
147
100
AcDbEntity
  8
0
 62
     7
100
AcDb2dPolyline
 66
     1
 10
0.0
 20
0.0
 30
0.0
  0
VERTEX
  5
14C
330
14B
100
AcDbEntity
  8
0
 62
     7
100
AcDbVertex
100
AcDb2dVertex
 10
-147.8162340238657
 20
-53.35999392122975
 30
0.0
  0
VERTEX
  5
14D
330
14B
100
AcDbEntity
  8
0
 62
     7
100
AcDbVertex
100
AcDb2dVertex
 10
-146.2162340238657
 20
-53.35999392122975
 30
0.0
  0
VERTEX
  5
14E
330
14B
100
AcDbEntity
  8
0
 62
     7
100
AcDbVertex
100
AcDb2dVertex
 10
-146.2162340238657
 20
-23.35999392122997
 30
0.0
  0
VERTEX
  5
14F
330
14B
100
AcDbEntity
  8
0
 62
     7
100
AcDbVertex
100
AcDb2dVertex
 10
-147.8162340238657
 20
-23.35999392122997
 30
0.0
  0
VERTEX
  5
150
330
14B
100
AcDbEntity
  8
0
 62
     7
100
AcDbVertex
100
AcDb2dVertex
 10
-147.8162340238657
 20
-53.35999392122975
 30
0.0
  0
SEQEND
  5
151
330
14B
100
AcDbEntity
  8
0
 62
     7
  0
ENDBLK
  5
14A
330
147
100
AcDbEntity
  8
0
100
AcDbBlockEnd
  0
BLOCK
  5
154
330
152
100
AcDbEntity
  8
0
100
AcDbBlockBegin
  2
BLOCK_31
 70
     0
 10
0.0
 20
0.0
 30
0.0
  3
BLOCK_31
  1

  0
POLYLINE
  5
156
330
152
100
AcDbEntity
  8
0
 62
     7
100
AcDb2dPolyline
 66
     1
 10
0.0
 20
0.0
 30
0.0
  0
VERTEX
  5
157
330
156
100
AcDbEntity
  8
0
 62
     7
100
AcDbVertex
100
AcDb2dVertex
 10
-127.0162340238656
 20
-45.46587437783723
 30
0.0
  0
VERTEX
  5
158
330
156
100
AcDbEntity
  8
0
 62
     7
100
AcDbVertex
100
AcDb2dVertex
 10
-107.0162340238656
 20
-45.46587437783723
 30
0.0
  0
SEQEND
  5
159
330
156
100
AcDbEntity
  8
0
 62
     7
  0
ENDBLK
  5
155
330
152
100
AcDbEntity
  8
0
100
AcDbBlockEnd
  0
BLOCK
  5
15C
330
15A
100
AcDbEntity
  8
0
100
AcDbBlockBegin
  2
BLOCK_32
 70
     0
 10
0.0
 20
0.0
 30
0.0
  3
BLOCK_32
  1

  0
POLYLINE
  5
15E
330
15A
100
AcDbEntity
  8
0
 62
     7
100
AcDb2dPolyline
 66
     1
 10
0.0
 20
0.0
 30
0.0
  0
VERTEX
  5
15F
330
15E
100
AcDbEntity
  8
0
 62
     7
100
AcDbVertex
100
AcDb2dVertex
 10
-167.0162340238655
 20
-45.46587437783723
 30
0.0
  0
VERTEX
  5
160
330
15E
100
AcDbEntity
  8
0
 62
     7
100
AcDbVertex
100
AcDb2dVertex
 10
-147.0162340238657
 20
-45.46587437783723
 30
0.0
  0
SEQEND
  5
161
330
15E
100
AcDbEntity
  8
0
 62
     7
  0
ENDBLK
  5
15D
330
15A
100
AcDbEntity
  8
0
100
AcDbBlockEnd
  0
BLOCK
  5
164
330
162
100
AcDbEntity
  8
0
100
AcDbBlockBegin
  2
BLOCK_33
 70
     0
 10
0.0
 20
0.0
 30
0.0
  3
BLOCK_33
  1

  0
POLYLINE
  5
166
330
162
100
AcDbEntity
  8
0
 62
     7
100
AcDb2dPolyline
 66
     1
 10
0.0
 20
0.0
 30
0.0
  0
VERTEX
  5
167
330
166
100
AcDbEntity
  8
0
 62
     7
100
AcDbVertex
100
AcDb2dVertex
 10
-147.0162340238657
 20
-23.35999392122997
 30
0.0
  0
VERTEX
  5
168
330
166
100
AcDbEntity
  8
0
 62
     7
100
AcDbVertex
100
AcDb2dVertex
 10
-147.0162340238657
 20
-53.35999392122975
 30
0.0
  0
SEQEND
  5
169
330
166
100
AcDbEntity
  8
0
 62
     7
  0
ENDBLK
  5
165
330
162
100
AcDbEntity
  8
0
100
AcDbBlockEnd
  0
ENDSEC
  0
SECTION
  2
ENTITIES
  0
SPLINE
  5
40
330
1F
100
AcDbEntity
  8
0
 62
   250
100
AcDbSpline
210
0.0
220
0.0
230
1.0
 70
    11
 71
     3
 72
    77
 73
    73
 74
     0
 42
0.0000000001
 43
0.0000000001
 12
1.0
 22
0.0
 32
0.0
 13
1.0
 23
0.0
 33
0.0
 40
0.0
 40
0.0
 40
0.0
 40
0.0
 40
1.0
 40
1.0
 40
1.0
 40
2.0
 40
2.0
 40
2.0
 40
3.0
 40
3.0
 40
3.0
 40
4.0
 40
4.0
 40
4.0
 40
5.0
 40
5.0
 40
5.0
 40
6.0
 40
6.0
 40
6.0
 40
7.0
 40
7.0
 40
7.0
 40
8.0
 40
8.0
 40
8.0
 40
9.0
 40
9.0
 40
9.0
 40
10.0
 40
10.0
 40
10.0
 40
11.0
 40
11.0
 40
11.0
 40
12.0
 40
12.0
 40
12.0
 40
13.0
 40
13.0
 40
13.0
 40
14.0
 40
14.0
 40
14.0
 40
15.0
 40
15.0
 40
15.0
 40
16.0
 40
16.0
 40
16.0
 40
17.0
 40
17.0
 40
17.0
 40
18.0
 40
18.0
 40
18.0
 40
19.0
 40
19.0
 40
19.0
 40
20.0
 40
20.0
 40
20.0
 40
21.0
 40
21.0
 40
21.0
 40
22.0
 40
22.0
 40
22.0
 40
23.0
 40
23.0
 40
23.0
 40
24.0
 40
24.0
 40
24.0
 40
24.0
 10
155.6509470089107
 20
259.9041615154251
 30
0.0
 10
155.6509470089107
 20
259.9041615154251
 30
0.0
 10
146.1259470112913
 20
259.9041615154251
 30
0.0
 10
146.1259470112913
 20
259.9041615154251
 30
0.0
 10
146.1259470112913
 20
259.9041615154251
 30
0.0
 10
145.4759651524586
 20
259.9041615154251
 30
0.0
 10
145.4759651524586
 20
259.9041615154251
 30
0.0
 10
144.9236732824798
 20
259.9041615154251
 30
0.0
 10
144.4759615923245
 20
259.4564498252687
 30
0.0
 10
144.4759615923245
 20
258.9041794871384
 30
0.0
 10
144.4759615923245
 20
258.9041794871384
 30
0.0
 10
144.4759615923245
 20
239.9041764401299
 30
0.0
 10
144.4759615923245
 20
239.9041764401299
 30
0.0
 10
144.4759615923245
 20
239.9041764401299
 30
0.0
 10
142.8259546415111
 20
239.9041764401299
 30
0.0
 10
142.8259546415111
 20
239.9041764401299
 30
0.0
 10
142.8259546415111
 20
239.9041764401299
 30
0.0
 10
142.8259546415111
 20
258.9041794871384
 30
0.0
 10
142.8259546415111
 20
258.9041794871384
 30
0.0
 10
142.8259546415111
 20
259.4564498252687
 30
0.0
 10
142.3782429513558
 20
259.9041615154251
 30
0.0
 10
141.8259510813767
 20
259.9041615154251
 30
0.0
 10
141.8259510813767
 20
259.9041615154251
 30
0.0
 10
141.1759476906972
 20
259.9041615154251
 30
0.0
 10
141.1759476906972
 20
259.9041615154251
 30
0.0
 10
141.1759476906972
 20
259.9041615154251
 30
0.0
 10
126.1259619359962
 20
259.9041615154251
 30
0.0
 10
126.1259619359962
 20
259.9041615154251
 30
0.0
 10
126.1259619359962
 20
259.9041615154251
 30
0.0
 10
125.4759585453166
 20
259.9041615154251
 30
0.0
 10
125.4759585453166
 20
259.9041615154251
 30
0.0
 10
124.9236666753375
 20
259.9041615154251
 30
0.0
 10
124.4759549851825
 20
259.4564498252687
 30
0.0
 10
124.4759549851825
 20
258.9041794871384
 30
0.0
 10
124.4759549851825
 20
258.9041794871384
 30
0.0
 10
124.4759549851825
 20
239.9041764401299
 30
0.0
 10
124.4759549851825
 20
239.9041764401299
 30
0.0
 10
124.4759549851825
 20
239.9041764401299
 30
0.0
 10
122.8259480343689
 20
239.9041764401299
 30
0.0
 10
122.8259480343689
 20
239.9041764401299
 30
0.0
 10
122.8259480343689
 20
239.9041764401299
 30
0.0
 10
122.8259480343689
 20
258.9041794871384
 30
0.0
 10
122.8259480343689
 20
258.9041794871384
 30
0.0
 10
122.8259480343689
 20
259.4564498252687
 30
0.0
 10
122.3782363442139
 20
259.9041615154251
 30
0.0
 10
121.8259660060816
 20
259.9041615154251
 30
0.0
 10
121.8259660060816
 20
259.9041615154251
 30
0.0
 10
121.1759626154021
 20
259.9041615154251
 30
0.0
 10
121.1759626154021
 20
259.9041615154251
 30
0.0
 10
121.1759626154021
 20
259.9041615154251
 30
0.0
 10
111.6509626177833
 20
259.9041615154251
 30
0.0
 10
111.6509626177833
 20
259.9041615154251
 30
0.0
 10
107.232670721644
 20
259.9041615154251
 30
0.0
 10
103.6509556685572
 20
256.322446462337
 30
0.0
 10
103.6509556685572
 20
251.9041760980444
 30
0.0
 10
103.6509556685572
 20
251.9041760980444
 30
0.0
 10
103.6509556685572
 20
207.9041701750715
 30
0.0
 10
103.6509556685572
 20
207.9041701750715
 30
0.0
 10
103.6509556685572
 20
203.4858998107796
 30
0.0
 10
107.232670721644
 20
199.9041632258467
 30
0.0
 10
111.6509626177833
 20
199.9041632258467
 30
0.0
 10
111.6509626177833
 20
199.9041632258467
 30
0.0
 10
155.6509470089107
 20
199.9041632258467
 30
0.0
 10
155.6509470089107
 20
199.9041632258467
 30
0.0
 10
160.06923890505
 20
199.9041632258467
 30
0.0
 10
163.6509539581362
 20
203.4858998107796
 30
0.0
 10
163.6509539581362
 20
207.9041701750715
 30
0.0
 10
163.6509539581362
 20
207.9041701750715
 30
0.0
 10
163.6509539581362
 20
251.9041760980444
 30
0.0
 10
163.6509539581362
 20
251.9041760980444
 30
0.0
 10
163.6509539581362
 20
256.322446462337
 30
0.0
 10
160.06923890505
 20
259.9041615154251
 30
0.0
 10
155.6509470089107
 20
259.9041615154251
 30
0.0
  0
SPLINE
  5
41
330
1F
100
AcDbEntity
  8
0
 62
   250
100
AcDbSpline
210
0.0
220
0.0
230
1.0
 70
    11
 71
     3
 72
    77
 73
    73
 74
     0
 42
0.0000000001
 43
0.0000000001
 12
1.0
 22
0.0
 32
0.0
 13
1.0
 23
0.0
 33
0.0
 40
0.0
 40
0.0
 40
0.0
 40
0.0
 40
1.0
 40
1.0
 40
1.0
 40
2.0
 40
2.0
 40
2.0
 40
3.0
 40
3.0
 40
3.0
 40
4.0
 40
4.0
 40
4.0
 40
5.0
 40
5.0
 40
5.0
 40
6.0
 40
6.0
 40
6.0
 40
7.0
 40
7.0
 40
7.0
 40
8.0
 40
8.0
 40
8.0
 40
9.0
 40
9.0
 40
9.0
 40
10.0
 40
10.0
 40
10.0
 40
11.0
 40
11.0
 40
11.0
 40
12.0
 40
12.0
 40
12.0
 40
13.0
 40
13.0
 40
13.0
 40
14.0
 40
14.0
 40
14.0
 40
15.0
 40
15.0
 40
15.0
 40
16.0
 40
16.0
 40
16.0
 40
17.0
 40
17.0
 40
17.0
 40
18.0
 40
18.0
 40
18.0
 40
19.0
 40
19.0
 40
19.0
 40
20.0
 40
20.0
 40
20.0
 40
21.0
 40
21.0
 40
21.0
 40
22.0
 40
22.0
 40
22.0
 40
23.0
 40
23.0
 40
23.0
 40
24.0
 40
24.0
 40
24.0
 40
24.0
 10
215.650945298491
 20
259.9041615154251
 30
0.0
 10
215.650945298491
 20
259.9041615154251
 30
0.0
 10
206.1259453008709
 20
259.9041615154251
 30
0.0
 10
206.1259453008709
 20
259.9041615154251
 30
0.0
 10
206.1259453008709
 20
259.9041615154251
 30
0.0
 10
205.4759634420376
 20
259.9041615154251
 30
0.0
 10
205.4759634420376
 20
259.9041615154251
 30
0.0
 10
204.9236715720591
 20
259.9041615154251
 30
0.0
 10
204.4759598819041
 20
259.4564498252687
 30
0.0
 10
204.4759598819041
 20
258.9041794871384
 30
0.0
 10
204.4759598819041
 20
258.9041794871384
 30
0.0
 10
204.4759598819041
 20
239.9041764401299
 30
0.0
 10
204.4759598819041
 20
239.9041764401299
 30
0.0
 10
204.4759598819041
 20
239.9041764401299
 30
0.0
 10
202.8259529310905
 20
239.9041764401299
 30
0.0
 10
202.8259529310905
 20
239.9041764401299
 30
0.0
 10
202.8259529310905
 20
239.9041764401299
 30
0.0
 10
202.8259529310905
 20
258.9041794871384
 30
0.0
 10
202.8259529310905
 20
258.9041794871384
 30
0.0
 10
202.8259529310905
 20
259.4564498252687
 30
0.0
 10
202.3782412409355
 20
259.9041615154251
 30
0.0
 10
201.8259493709564
 20
259.9041615154251
 30
0.0
 10
201.8259493709564
 20
259.9041615154251
 30
0.0
 10
201.1759459802769
 20
259.9041615154251
 30
0.0
 10
201.1759459802769
 20
259.9041615154251
 30
0.0
 10
201.1759459802769
 20
259.9041615154251
 30
0.0
 10
186.1259602255758
 20
259.9041615154251
 30
0.0
 10
186.1259602255758
 20
259.9041615154251
 30
0.0
 10
186.1259602255758
 20
259.9041615154251
 30
0.0
 10
185.4759568348963
 20
259.9041615154251
 30
0.0
 10
185.4759568348963
 20
259.9041615154251
 30
0.0
 10
184.9236649649172
 20
259.9041615154251
 30
0.0
 10
184.4759532747615
 20
259.4564498252687
 30
0.0
 10
184.4759532747615
 20
258.9041794871384
 30
0.0
 10
184.4759532747615
 20
258.9041794871384
 30
0.0
 10
184.4759532747615
 20
239.9041764401299
 30
0.0
 10
184.4759532747615
 20
239.9041764401299
 30
0.0
 10
184.4759532747615
 20
239.9041764401299
 30
0.0
 10
182.8259463239486
 20
239.9041764401299
 30
0.0
 10
182.8259463239486
 20
239.9041764401299
 30
0.0
 10
182.8259463239486
 20
239.9041764401299
 30
0.0
 10
182.8259463239486
 20
258.9041794871384
 30
0.0
 10
182.8259463239486
 20
258.9041794871384
 30
0.0
 10
182.8259463239486
 20
259.4564498252687
 30
0.0
 10
182.3782346337929
 20
259.9041615154251
 30
0.0
 10
181.8259642956612
 20
259.9041615154251
 30
0.0
 10
181.8259642956612
 20
259.9041615154251
 30
0.0
 10
181.1759609049817
 20
259.9041615154251
 30
0.0
 10
181.1759609049817
 20
259.9041615154251
 30
0.0
 10
181.1759609049817
 20
259.9041615154251
 30
0.0
 10
171.650960907363
 20
259.9041615154251
 30
0.0
 10
171.650960907363
 20
259.9041615154251
 30
0.0
 10
167.2326690112236
 20
259.9041615154251
 30
0.0
 10
163.6509539581362
 20
256.322446462337
 30
0.0
 10
163.6509539581362
 20
251.9041760980444
 30
0.0
 10
163.6509539581362
 20
251.9041760980444
 30
0.0
 10
163.6509539581362
 20
207.9041701750715
 30
0.0
 10
163.6509539581362
 20
207.9041701750715
 30
0.0
 10
163.6509539581362
 20
203.4858998107796
 30
0.0
 10
167.2326690112236
 20
199.9041632258467
 30
0.0
 10
171.650960907363
 20
199.9041632258467
 30
0.0
 10
171.650960907363
 20
199.9041632258467
 30
0.0
 10
215.650945298491
 20
199.9041632258467
 30
0.0
 10
215.650945298491
 20
199.9041632258467
 30
0.0
 10
220.0692371946303
 20
199.9041632258467
 30
0.0
 10
223.6509522477165
 20
203.4858998107796
 30
0.0
 10
223.6509522477165
 20
207.9041701750715
 30
0.0
 10
223.6509522477165
 20
207.9041701750715
 30
0.0
 10
223.6509522477165
 20
251.9041760980444
 30
0.0
 10
223.6509522477165
 20
251.9041760980444
 30
0.0
 10
223.6509522477165
 20
256.322446462337
 30
0.0
 10
220.0692371946303
 20
259.9041615154251
 30
0.0
 10
215.650945298491
 20
259.9041615154251
 30
0.0
  0
SPLINE
  5
42
330
1F
100
AcDbEntity
  8
0
 62
   250
100
AcDbSpline
210
0.0
220
0.0
230
1.0
 70
    11
 71
     3
 72
    77
 73
    73
 74
     0
 42
0.0000000001
 43
0.0000000001
 12
1.0
 22
0.0
 32
0.0
 13
1.0
 23
0.0
 33
0.0
 40
0.0
 40
0.0
 40
0.0
 40
0.0
 40
1.0
 40
1.0
 40
1.0
 40
2.0
 40
2.0
 40
2.0
 40
3.0
 40
3.0
 40
3.0
 40
4.0
 40
4.0
 40
4.0
 40
5.0
 40
5.0
 40
5.0
 40
6.0
 40
6.0
 40
6.0
 40
7.0
 40
7.0
 40
7.0
 40
8.0
 40
8.0
 40
8.0
 40
9.0
 40
9.0
 40
9.0
 40
10.0
 40
10.0
 40
10.0
 40
11.0
 40
11.0
 40
11.0
 40
12.0
 40
12.0
 40
12.0
 40
13.0
 40
13.0
 40
13.0
 40
14.0
 40
14.0
 40
14.0
 40
15.0
 40
15.0
 40
15.0
 40
16.0
 40
16.0
 40
16.0
 40
17.0
 40
17.0
 40
17.0
 40
18.0
 40
18.0
 40
18.0
 40
19.0
 40
19.0
 40
19.0
 40
20.0
 40
20.0
 40
20.0
 40
21.0
 40
21.0
 40
21.0
 40
22.0
 40
22.0
 40
22.0
 40
23.0
 40
23.0
 40
23.0
 40
24.0
 40
24.0
 40
24.0
 40
24.0
 10
275.6509435880712
 20
259.9041615154251
 30
0.0
 10
275.6509435880712
 20
259.9041615154251
 30
0.0
 10
266.1259435904512
 20
259.9041615154251
 30
0.0
 10
266.1259435904512
 20
259.9041615154251
 30
0.0
 10
266.1259435904512
 20
259.9041615154251
 30
0.0
 10
265.4759617316191
 20
259.9041615154251
 30
0.0
 10
265.4759617316191
 20
259.9041615154251
 30
0.0
 10
264.9236698616394
 20
259.9041615154251
 30
0.0
 10
264.4759581714844
 20
259.4564498252687
 30
0.0
 10
264.4759581714844
 20
258.9041794871384
 30
0.0
 10
264.4759581714844
 20
258.9041794871384
 30
0.0
 10
264.4759581714844
 20
239.9041764401299
 30
0.0
 10
264.4759581714844
 20
239.9041764401299
 30
0.0
 10
264.4759581714844
 20
239.9041764401299
 30
0.0
 10
262.8259512206707
 20
239.9041764401299
 30
0.0
 10
262.8259512206707
 20
239.9041764401299
 30
0.0
 10
262.8259512206707
 20
239.9041764401299
 30
0.0
 10
262.8259512206707
 20
258.9041794871384
 30
0.0
 10
262.8259512206707
 20
258.9041794871384
 30
0.0
 10
262.8259512206707
 20
259.4564498252687
 30
0.0
 10
262.3782395305158
 20
259.9041615154251
 30
0.0
 10
261.8259476605367
 20
259.9041615154251
 30
0.0
 10
261.8259476605367
 20
259.9041615154251
 30
0.0
 10
261.1759442698571
 20
259.9041615154251
 30
0.0
 10
261.1759442698571
 20
259.9041615154251
 30
0.0
 10
261.1759442698571
 20
259.9041615154251
 30
0.0
 10
246.1259585151561
 20
259.9041615154251
 30
0.0
 10
246.1259585151561
 20
259.9041615154251
 30
0.0
 10
246.1259585151561
 20
259.9041615154251
 30
0.0
 10
245.4759551244766
 20
259.9041615154251
 30
0.0
 10
245.4759551244766
 20
259.9041615154251
 30
0.0
 10
244.9236632544975
 20
259.9041615154251
 30
0.0
 10
244.4759515643418
 20
259.4564498252687
 30
0.0
 10
244.4759515643418
 20
258.9041794871384
 30
0.0
 10
244.4759515643418
 20
258.9041794871384
 30
0.0
 10
244.4759515643418
 20
239.9041764401299
 30
0.0
 10
244.4759515643418
 20
239.9041764401299
 30
0.0
 10
244.4759515643418
 20
239.9041764401299
 30
0.0
 10
242.8259446135288
 20
239.9041764401299
 30
0.0
 10
242.8259446135288
 20
239.9041764401299
 30
0.0
 10
242.8259446135288
 20
239.9041764401299
 30
0.0
 10
242.8259446135288
 20
258.9041794871384
 30
0.0
 10
242.8259446135288
 20
258.9041794871384
 30
0.0
 10
242.8259446135288
 20
259.4564498252687
 30
0.0
 10
242.3782329233732
 20
259.9041615154251
 30
0.0
 10
241.8259625852415
 20
259.9041615154251
 30
0.0
 10
241.8259625852415
 20
259.9041615154251
 30
0.0
 10
241.175959194562
 20
259.9041615154251
 30
0.0
 10
241.175959194562
 20
259.9041615154251
 30
0.0
 10
241.175959194562
 20
259.9041615154251
 30
0.0
 10
231.6509591969432
 20
259.9041615154251
 30
0.0
 10
231.6509591969432
 20
259.9041615154251
 30
0.0
 10
227.2326673008039
 20
259.9041615154251
 30
0.0
 10
223.6509522477165
 20
256.322446462337
 30
0.0
 10
223.6509522477165
 20
251.9041760980444
 30
0.0
 10
223.6509522477165
 20
251.9041760980444
 30
0.0
 10
223.6509522477165
 20
207.9041701750715
 30
0.0
 10
223.6509522477165
 20
207.9041701750715
 30
0.0
 10
223.6509522477165
 20
203.4858998107796
 30
0.0
 10
227.2326673008039
 20
199.9041632258467
 30
0.0
 10
231.6509591969432
 20
199.9041632258467
 30
0.0
 10
231.6509591969432
 20
199.9041632258467
 30
0.0
 10
275.6509435880712
 20
199.9041632258467
 30
0.0
 10
275.6509435880712
 20
199.9041632258467
 30
0.0
 10
280.06923548421
 20
199.9041632258467
 30
0.0
 10
283.6509505372974
 20
203.4858998107796
 30
0.0
 10
283.6509505372974
 20
207.9041701750715
 30
0.0
 10
283.6509505372974
 20
207.9041701750715
 30
0.0
 10
283.6509505372974
 20
251.9041760980444
 30
0.0
 10
283.6509505372974
 20
251.9041760980444
 30
0.0
 10
283.6509505372974
 20
256.322446462337
 30
0.0
 10
280.06923548421
 20
259.9041615154251
 30
0.0
 10
275.6509435880712
 20
259.9041615154251
 30
0.0
  0
SPLINE
  5
43
330
1F
100
AcDbEntity
  8
0
 62
   250
100
AcDbSpline
210
0.0
220
0.0
230
1.0
 70
    11
 71
     3
 72
    77
 73
    73
 74
     0
 42
0.0000000001
 43
0.0000000001
 12
1.0
 22
0.0
 32
0.0
 13
1.0
 23
0.0
 33
0.0
 40
0.0
 40
0.0
 40
0.0
 40
0.0
 40
1.0
 40
1.0
 40
1.0
 40
2.0
 40
2.0
 40
2.0
 40
3.0
 40
3.0
 40
3.0
 40
4.0
 40
4.0
 40
4.0
 40
5.0
 40
5.0
 40
5.0
 40
6.0
 40
6.0
 40
6.0
 40
7.0
 40
7.0
 40
7.0
 40
8.0
 40
8.0
 40
8.0
 40
9.0
 40
9.0
 40
9.0
 40
10.0
 40
10.0
 40
10.0
 40
11.0
 40
11.0
 40
11.0
 40
12.0
 40
12.0
 40
12.0
 40
13.0
 40
13.0
 40
13.0
 40
14.0
 40
14.0
 40
14.0
 40
15.0
 40
15.0
 40
15.0
 40
16.0
 40
16.0
 40
16.0
 40
17.0
 40
17.0
 40
17.0
 40
18.0
 40
18.0
 40
18.0
 40
19.0
 40
19.0
 40
19.0
 40
20.0
 40
20.0
 40
20.0
 40
21.0
 40
21.0
 40
21.0
 40
22.0
 40
22.0
 40
22.0
 40
23.0
 40
23.0
 40
23.0
 40
24.0
 40
24.0
 40
24.0
 40
24.0
 10
335.6509418776515
 20
259.9041615154251
 30
0.0
 10
335.6509418776515
 20
259.9041615154251
 30
0.0
 10
326.1259418800308
 20
259.9041615154251
 30
0.0
 10
326.1259418800308
 20
259.9041615154251
 30
0.0
 10
326.1259418800308
 20
259.9041615154251
 30
0.0
 10
325.4759600211988
 20
259.9041615154251
 30
0.0
 10
325.4759600211988
 20
259.9041615154251
 30
0.0
 10
324.9236681512197
 20
259.9041615154251
 30
0.0
 10
324.4759564610646
 20
259.4564498252687
 30
0.0
 10
324.4759564610646
 20
258.9041794871384
 30
0.0
 10
324.4759564610646
 20
258.9041794871384
 30
0.0
 10
324.4759564610646
 20
239.9041764401299
 30
0.0
 10
324.4759564610646
 20
239.9041764401299
 30
0.0
 10
324.4759564610646
 20
239.9041764401299
 30
0.0
 10
322.825949510251
 20
239.9041764401299
 30
0.0
 10
322.825949510251
 20
239.9041764401299
 30
0.0
 10
322.825949510251
 20
239.9041764401299
 30
0.0
 10
322.825949510251
 20
258.9041794871384
 30
0.0
 10
322.825949510251
 20
258.9041794871384
 30
0.0
 10
322.825949510251
 20
259.4564498252687
 30
0.0
 10
322.378237820096
 20
259.9041615154251
 30
0.0
 10
321.8259459501162
 20
259.9041615154251
 30
0.0
 10
321.8259459501162
 20
259.9041615154251
 30
0.0
 10
321.1759425594367
 20
259.9041615154251
 30
0.0
 10
321.1759425594367
 20
259.9041615154251
 30
0.0
 10
321.1759425594367
 20
259.9041615154251
 30
0.0
 10
306.1259568047357
 20
259.9041615154251
 30
0.0
 10
306.1259568047357
 20
259.9041615154251
 30
0.0
 10
306.1259568047357
 20
259.9041615154251
 30
0.0
 10
305.4759534140562
 20
259.9041615154251
 30
0.0
 10
305.4759534140562
 20
259.9041615154251
 30
0.0
 10
304.9236615440777
 20
259.9041615154251
 30
0.0
 10
304.4759498539227
 20
259.4564498252687
 30
0.0
 10
304.4759498539227
 20
258.9041794871384
 30
0.0
 10
304.4759498539227
 20
258.9041794871384
 30
0.0
 10
304.4759498539227
 20
239.9041764401299
 30
0.0
 10
304.4759498539227
 20
239.9041764401299
 30
0.0
 10
304.4759498539227
 20
239.9041764401299
 30
0.0
 10
302.8259429031091
 20
239.9041764401299
 30
0.0
 10
302.8259429031091
 20
239.9041764401299
 30
0.0
 10
302.8259429031091
 20
239.9041764401299
 30
0.0
 10
302.8259429031091
 20
258.9041794871384
 30
0.0
 10
302.8259429031091
 20
258.9041794871384
 30
0.0
 10
302.8259429031091
 20
259.4564498252687
 30
0.0
 10
302.3782312129541
 20
259.9041615154251
 30
0.0
 10
301.8259608748211
 20
259.9041615154251
 30
0.0
 10
301.8259608748211
 20
259.9041615154251
 30
0.0
 10
301.1759574841416
 20
259.9041615154251
 30
0.0
 10
301.1759574841416
 20
259.9041615154251
 30
0.0
 10
301.1759574841416
 20
259.9041615154251
 30
0.0
 10
291.6509574865229
 20
259.9041615154251
 30
0.0
 10
291.6509574865229
 20
259.9041615154251
 30
0.0
 10
287.2326655903842
 20
259.9041615154251
 30
0.0
 10
283.6509505372974
 20
256.322446462337
 30
0.0
 10
283.6509505372974
 20
251.9041760980444
 30
0.0
 10
283.6509505372974
 20
251.9041760980444
 30
0.0
 10
283.6509505372974
 20
207.9041701750715
 30
0.0
 10
283.6509505372974
 20
207.9041701750715
 30
0.0
 10
283.6509505372974
 20
203.4858998107796
 30
0.0
 10
287.2326655903842
 20
199.9041632258467
 30
0.0
 10
291.6509574865229
 20
199.9041632258467
 30
0.0
 10
291.6509574865229
 20
199.9041632258467
 30
0.0
 10
335.6509418776515
 20
199.9041632258467
 30
0.0
 10
335.6509418776515
 20
199.9041632258467
 30
0.0
 10
340.0692337737916
 20
199.9041632258467
 30
0.0
 10
343.6509488268777
 20
203.4858998107796
 30
0.0
 10
343.6509488268777
 20
207.9041701750715
 30
0.0
 10
343.6509488268777
 20
207.9041701750715
 30
0.0
 10
343.6509488268777
 20
251.9041760980444
 30
0.0
 10
343.6509488268777
 20
251.9041760980444
 30
0.0
 10
343.6509488268777
 20
256.322446462337
 30
0.0
 10
340.0692337737916
 20
259.9041615154251
 30
0.0
 10
335.6509418776515
 20
259.9041615154251
 30
0.0
  0
SPLINE
  5
44
330
1F
100
AcDbEntity
  8
0
 62
   250
100
AcDbSpline
210
0.0
220
0.0
230
1.0
 70
    11
 71
     3
 72
    77
 73
    73
 74
     0
 42
0.0000000001
 43
0.0000000001
 12
1.0
 22
0.0
 32
0.0
 13
1.0
 23
0.0
 33
0.0
 40
0.0
 40
0.0
 40
0.0
 40
0.0
 40
1.0
 40
1.0
 40
1.0
 40
2.0
 40
2.0
 40
2.0
 40
3.0
 40
3.0
 40
3.0
 40
4.0
 40
4.0
 40
4.0
 40
5.0
 40
5.0
 40
5.0
 40
6.0
 40
6.0
 40
6.0
 40
7.0
 40
7.0
 40
7.0
 40
8.0
 40
8.0
 40
8.0
 40
9.0
 40
9.0
 40
9.0
 40
10.0
 40
10.0
 40
10.0
 40
11.0
 40
11.0
 40
11.0
 40
12.0
 40
12.0
 40
12.0
 40
13.0
 40
13.0
 40
13.0
 40
14.0
 40
14.0
 40
14.0
 40
15.0
 40
15.0
 40
15.0
 40
16.0
 40
16.0
 40
16.0
 40
17.0
 40
17.0
 40
17.0
 40
18.0
 40
18.0
 40
18.0
 40
19.0
 40
19.0
 40
19.0
 40
20.0
 40
20.0
 40
20.0
 40
21.0
 40
21.0
 40
21.0
 40
22.0
 40
22.0
 40
22.0
 40
23.0
 40
23.0
 40
23.0
 40
24.0
 40
24.0
 40
24.0
 40
24.0
 10
395.6509401672318
 20
259.9041615154251
 30
0.0
 10
395.6509401672318
 20
259.9041615154251
 30
0.0
 10
386.1259401696118
 20
259.9041615154251
 30
0.0
 10
386.1259401696118
 20
259.9041615154251
 30
0.0
 10
386.1259401696118
 20
259.9041615154251
 30
0.0
 10
385.475958310779
 20
259.9041615154251
 30
0.0
 10
385.475958310779
 20
259.9041615154251
 30
0.0
 10
384.9236664407999
 20
259.9041615154251
 30
0.0
 10
384.4759547506449
 20
259.4564498252687
 30
0.0
 10
384.4759547506449
 20
258.9041794871384
 30
0.0
 10
384.4759547506449
 20
258.9041794871384
 30
0.0
 10
384.4759547506449
 20
239.9041764401299
 30
0.0
 10
384.4759547506449
 20
239.9041764401299
 30
0.0
 10
384.4759547506449
 20
239.9041764401299
 30
0.0
 10
382.8259477998313
 20
239.9041764401299
 30
0.0
 10
382.8259477998313
 20
239.9041764401299
 30
0.0
 10
382.8259477998313
 20
239.9041764401299
 30
0.0
 10
382.8259477998313
 20
258.9041794871384
 30
0.0
 10
382.8259477998313
 20
258.9041794871384
 30
0.0
 10
382.8259477998313
 20
259.4564498252687
 30
0.0
 10
382.3782361096763
 20
259.9041615154251
 30
0.0
 10
381.8259442396972
 20
259.9041615154251
 30
0.0
 10
381.8259442396972
 20
259.9041615154251
 30
0.0
 10
381.1759408490177
 20
259.9041615154251
 30
0.0
 10
381.1759408490177
 20
259.9041615154251
 30
0.0
 10
381.1759408490177
 20
259.9041615154251
 30
0.0
 10
366.1259550943166
 20
259.9041615154251
 30
0.0
 10
366.1259550943166
 20
259.9041615154251
 30
0.0
 10
366.1259550943166
 20
259.9041615154251
 30
0.0
 10
365.4759517036371
 20
259.9041615154251
 30
0.0
 10
365.4759517036371
 20
259.9041615154251
 30
0.0
 10
364.923659833658
 20
259.9041615154251
 30
0.0
 10
364.475948143503
 20
259.4564498252687
 30
0.0
 10
364.475948143503
 20
258.9041794871384
 30
0.0
 10
364.475948143503
 20
258.9041794871384
 30
0.0
 10
364.475948143503
 20
239.9041764401299
 30
0.0
 10
364.475948143503
 20
239.9041764401299
 30
0.0
 10
364.475948143503
 20
239.9041764401299
 30
0.0
 10
362.8259411926894
 20
239.9041764401299
 30
0.0
 10
362.8259411926894
 20
239.9041764401299
 30
0.0
 10
362.8259411926894
 20
239.9041764401299
 30
0.0
 10
362.8259411926894
 20
258.9041794871384
 30
0.0
 10
362.8259411926894
 20
258.9041794871384
 30
0.0
 10
362.8259411926894
 20
259.4564498252687
 30
0.0
 10
362.3782295025344
 20
259.9041615154251
 30
0.0
 10
361.825959164402
 20
259.9041615154251
 30
0.0
 10
361.825959164402
 20
259.9041615154251
 30
0.0
 10
361.1759557737225
 20
259.9041615154251
 30
0.0
 10
361.1759557737225
 20
259.9041615154251
 30
0.0
 10
361.1759557737225
 20
259.9041615154251
 30
0.0
 10
351.6509557761044
 20
259.9041615154251
 30
0.0
 10
351.6509557761044
 20
259.9041615154251
 30
0.0
 10
347.2326638799644
 20
259.9041615154251
 30
0.0
 10
343.6509488268777
 20
256.322446462337
 30
0.0
 10
343.6509488268777
 20
251.9041760980444
 30
0.0
 10
343.6509488268777
 20
251.9041760980444
 30
0.0
 10
343.6509488268777
 20
207.9041701750715
 30
0.0
 10
343.6509488268777
 20
207.9041701750715
 30
0.0
 10
343.6509488268777
 20
203.4858998107796
 30
0.0
 10
347.2326638799644
 20
199.9041632258467
 30
0.0
 10
351.6509557761044
 20
199.9041632258467
 30
0.0
 10
351.6509557761044
 20
199.9041632258467
 30
0.0
 10
395.6509401672318
 20
199.9041632258467
 30
0.0
 10
395.6509401672318
 20
199.9041632258467
 30
0.0
 10
400.0692320633711
 20
199.9041632258467
 30
0.0
 10
403.6509471164579
 20
203.4858998107796
 30
0.0
 10
403.6509471164579
 20
207.9041701750715
 30
0.0
 10
403.6509471164579
 20
207.9041701750715
 30
0.0
 10
403.6509471164579
 20
251.9041760980444
 30
0.0
 10
403.6509471164579
 20
251.9041760980444
 30
0.0
 10
403.6509471164579
 20
256.322446462337
 30
0.0
 10
400.0692320633711
 20
259.9041615154251
 30
0.0
 10
395.6509401672318
 20
259.9041615154251
 30
0.0
  0
SPLINE
  5
45
330
1F
100
AcDbEntity
  8
0
 62
   250
100
AcDbSpline
210
0.0
220
0.0
230
1.0
 70
    11
 71
     3
 72
    77
 73
    73
 74
     0
 42
0.0000000001
 43
0.0000000001
 12
1.0
 22
0.0
 32
0.0
 13
1.0
 23
0.0
 33
0.0
 40
0.0
 40
0.0
 40
0.0
 40
0.0
 40
1.0
 40
1.0
 40
1.0
 40
2.0
 40
2.0
 40
2.0
 40
3.0
 40
3.0
 40
3.0
 40
4.0
 40
4.0
 40
4.0
 40
5.0
 40
5.0
 40
5.0
 40
6.0
 40
6.0
 40
6.0
 40
7.0
 40
7.0
 40
7.0
 40
8.0
 40
8.0
 40
8.0
 40
9.0
 40
9.0
 40
9.0
 40
10.0
 40
10.0
 40
10.0
 40
11.0
 40
11.0
 40
11.0
 40
12.0
 40
12.0
 40
12.0
 40
13.0
 40
13.0
 40
13.0
 40
14.0
 40
14.0
 40
14.0
 40
15.0
 40
15.0
 40
15.0
 40
16.0
 40
16.0
 40
16.0
 40
17.0
 40
17.0
 40
17.0
 40
18.0
 40
18.0
 40
18.0
 40
19.0
 40
19.0
 40
19.0
 40
20.0
 40
20.0
 40
20.0
 40
21.0
 40
21.0
 40
21.0
 40
22.0
 40
22.0
 40
22.0
 40
23.0
 40
23.0
 40
23.0
 40
24.0
 40
24.0
 40
24.0
 40
24.0
 10
455.6509384568121
 20
259.9041615154251
 30
0.0
 10
455.6509384568121
 20
259.9041615154251
 30
0.0
 10
446.1259384591921
 20
259.9041615154251
 30
0.0
 10
446.1259384591921
 20
259.9041615154251
 30
0.0
 10
446.1259384591921
 20
259.9041615154251
 30
0.0
 10
445.4759566003593
 20
259.9041615154251
 30
0.0
 10
445.4759566003593
 20
259.9041615154251
 30
0.0
 10
444.9236647303802
 20
259.9041615154251
 30
0.0
 10
444.4759530402252
 20
259.4564498252687
 30
0.0
 10
444.4759530402252
 20
258.9041794871384
 30
0.0
 10
444.4759530402252
 20
258.9041794871384
 30
0.0
 10
444.4759530402252
 20
239.9041764401299
 30
0.0
 10
444.4759530402252
 20
239.9041764401299
 30
0.0
 10
444.4759530402252
 20
239.9041764401299
 30
0.0
 10
442.8259460894116
 20
239.9041764401299
 30
0.0
 10
442.8259460894116
 20
239.9041764401299
 30
0.0
 10
442.8259460894116
 20
239.9041764401299
 30
0.0
 10
442.8259460894116
 20
258.9041794871384
 30
0.0
 10
442.8259460894116
 20
258.9041794871384
 30
0.0
 10
442.8259460894116
 20
259.4564498252687
 30
0.0
 10
442.3782343992566
 20
259.9041615154251
 30
0.0
 10
441.8259425292775
 20
259.9041615154251
 30
0.0
 10
441.8259425292775
 20
259.9041615154251
 30
0.0
 10
441.175939138598
 20
259.9041615154251
 30
0.0
 10
441.175939138598
 20
259.9041615154251
 30
0.0
 10
441.175939138598
 20
259.9041615154251
 30
0.0
 10
426.1259533838969
 20
259.9041615154251
 30
0.0
 10
426.1259533838969
 20
259.9041615154251
 30
0.0
 10
426.1259533838969
 20
259.9041615154251
 30
0.0
 10
425.4759499932174
 20
259.9041615154251
 30
0.0
 10
425.4759499932174
 20
259.9041615154251
 30
0.0
 10
424.9236581232383
 20
259.9041615154251
 30
0.0
 10
424.4759464330833
 20
259.4564498252687
 30
0.0
 10
424.4759464330833
 20
258.9041794871384
 30
0.0
 10
424.4759464330833
 20
258.9041794871384
 30
0.0
 10
424.4759464330833
 20
239.9041764401299
 30
0.0
 10
424.4759464330833
 20
239.9041764401299
 30
0.0
 10
424.4759464330833
 20
239.9041764401299
 30
0.0
 10
422.8259394822697
 20
239.9041764401299
 30
0.0
 10
422.8259394822697
 20
239.9041764401299
 30
0.0
 10
422.8259394822697
 20
239.9041764401299
 30
0.0
 10
422.8259394822697
 20
258.9041794871384
 30
0.0
 10
422.8259394822697
 20
258.9041794871384
 30
0.0
 10
422.8259394822697
 20
259.4564498252687
 30
0.0
 10
422.3782277921147
 20
259.9041615154251
 30
0.0
 10
421.8259574539823
 20
259.9041615154251
 30
0.0
 10
421.8259574539823
 20
259.9041615154251
 30
0.0
 10
421.1759540633028
 20
259.9041615154251
 30
0.0
 10
421.1759540633028
 20
259.9041615154251
 30
0.0
 10
421.1759540633028
 20
259.9041615154251
 30
0.0
 10
411.6509540656841
 20
259.9041615154251
 30
0.0
 10
411.6509540656841
 20
259.9041615154251
 30
0.0
 10
407.2326621695447
 20
259.9041615154251
 30
0.0
 10
403.6509471164579
 20
256.322446462337
 30
0.0
 10
403.6509471164579
 20
251.9041760980444
 30
0.0
 10
403.6509471164579
 20
251.9041760980444
 30
0.0
 10
403.6509471164579
 20
207.9041701750715
 30
0.0
 10
403.6509471164579
 20
207.9041701750715
 30
0.0
 10
403.6509471164579
 20
203.4858998107796
 30
0.0
 10
407.2326621695447
 20
199.9041632258467
 30
0.0
 10
411.6509540656841
 20
199.9041632258467
 30
0.0
 10
411.6509540656841
 20
199.9041632258467
 30
0.0
 10
455.6509384568121
 20
199.9041632258467
 30
0.0
 10
455.6509384568121
 20
199.9041632258467
 30
0.0
 10
460.0692303529514
 20
199.9041632258467
 30
0.0
 10
463.6509454060382
 20
203.4858998107796
 30
0.0
 10
463.6509454060382
 20
207.9041701750715
 30
0.0
 10
463.6509454060382
 20
207.9041701750715
 30
0.0
 10
463.6509454060382
 20
251.9041760980444
 30
0.0
 10
463.6509454060382
 20
251.9041760980444
 30
0.0
 10
463.6509454060382
 20
256.322446462337
 30
0.0
 10
460.0692303529514
 20
259.9041615154251
 30
0.0
 10
455.6509384568121
 20
259.9041615154251
 30
0.0
  0
SPLINE
  5
46
330
1F
100
AcDbEntity
  8
0
 62
   250
100
AcDbSpline
210
0.0
220
0.0
230
1.0
 70
    11
 71
     3
 72
   221
 73
   217
 74
     0
 42
0.0000000001
 43
0.0000000001
 12
1.0
 22
0.0
 32
0.0
 13
1.0
 23
0.0
 33
0.0
 40
0.0
 40
0.0
 40
0.0
 40
0.0
 40
1.0
 40
1.0
 40
1.0
 40
2.0
 40
2.0
 40
2.0
 40
3.0
 40
3.0
 40
3.0
 40
4.0
 40
4.0
 40
4.0
 40
5.0
 40
5.0
 40
5.0
 40
6.0
 40
6.0
 40
6.0
 40
7.0
 40
7.0
 40
7.0
 40
8.0
 40
8.0
 40
8.0
 40
9.0
 40
9.0
 40
9.0
 40
10.0
 40
10.0
 40
10.0
 40
11.0
 40
11.0
 40
11.0
 40
12.0
 40
12.0
 40
12.0
 40
13.0
 40
13.0
 40
13.0
 40
14.0
 40
14.0
 40
14.0
 40
15.0
 40
15.0
 40
15.0
 40
16.0
 40
16.0
 40
16.0
 40
17.0
 40
17.0
 40
17.0
 40
18.0
 40
18.0
 40
18.0
 40
19.0
 40
19.0
 40
19.0
 40
20.0
 40
20.0
 40
20.0
 40
21.0
 40
21.0
 40
21.0
 40
22.0
 40
22.0
 40
22.0
 40
23.0
 40
23.0
 40
23.0
 40
24.0
 40
24.0
 40
24.0
 40
25.0
 40
25.0
 40
25.0
 40
26.0
 40
26.0
 40
26.0
 40
27.0
 40
27.0
 40
27.0
 40
28.0
 40
28.0
 40
28.0
 40
29.0
 40
29.0
 40
29.0
 40
30.0
 40
30.0
 40
30.0
 40
31.0
 40
31.0
 40
31.0
 40
32.0
 40
32.0
 40
32.0
 40
33.0
 40
33.0
 40
33.0
 40
34.0
 40
34.0
 40
34.0
 40
35.0
 40
35.0
 40
35.0
 40
36.0
 40
36.0
 40
36.0
 40
37.0
 40
37.0
 40
37.0
 40
38.0
 40
38.0
 40
38.0
 40
39.0
 40
39.0
 40
39.0
 40
40.0
 40
40.0
 40
40.0
 40
41.0
 40
41.0
 40
41.0
 40
42.0
 40
42.0
 40
42.0
 40
43.0
 40
43.0
 40
43.0
 40
44.0
 40
44.0
 40
44.0
 40
45.0
 40
45.0
 40
45.0
 40
46.0
 40
46.0
 40
46.0
 40
47.0
 40
47.0
 40
47.0
 40
48.0
 40
48.0
 40
48.0
 40
49.0
 40
49.0
 40
49.0
 40
50.0
 40
50.0
 40
50.0
 40
51.0
 40
51.0
 40
51.0
 40
52.0
 40
52.0
 40
52.0
 40
53.0
 40
53.0
 40
53.0
 40
54.0
 40
54.0
 40
54.0
 40
55.0
 40
55.0
 40
55.0
 40
56.0
 40
56.0
 40
56.0
 40
57.0
 40
57.0
 40
57.0
 40
58.0
 40
58.0
 40
58.0
 40
59.0
 40
59.0
 40
59.0
 40
60.0
 40
60.0
 40
60.0
 40
61.0
 40
61.0
 40
61.0
 40
62.0
 40
62.0
 40
62.0
 40
63.0
 40
63.0
 40
63.0
 40
64.0
 40
64.0
 40
64.0
 40
65.0
 40
65.0
 40
65.0
 40
66.0
 40
66.0
 40
66.0
 40
67.0
 40
67.0
 40
67.0
 40
68.0
 40
68.0
 40
68.0
 40
69.0
 40
69.0
 40
69.0
 40
70.0
 40
70.0
 40
70.0
 40
71.0
 40
71.0
 40
71.0
 40
72.0
 40
72.0
 40
72.0
 40
72.0
 10
215.6509560644131
 20
199.9041632258467
 30
0.0
 10
215.6509560644131
 20
199.9041632258467
 30
0.0
 10
186.1259494596524
 20
199.9041632258467
 30
0.0
 10
186.1259494596524
 20
199.9041632258467
 30
0.0
 10
186.1259494596524
 20
199.9041632258467
 30
0.0
 10
185.4759460689729
 20
199.9041632258467
 30
0.0
 10
185.4759460689729
 20
199.9041632258467
 30
0.0
 10
184.9236757308406
 20
199.9041632258467
 30
0.0
 10
184.4759425088388
 20
199.4564515356904
 30
0.0
 10
184.4759425088388
 20
198.9041596657119
 30
0.0
 10
184.4759425088388
 20
198.9041596657119
 30
0.0
 10
184.4759425088388
 20
169.9041640810578
 30
0.0
 10
184.4759425088388
 20
169.9041640810578
 30
0.0
 10
184.4759425088388
 20
169.9041640810578
 30
0.0
 10
182.8259570898719
 20
169.9041640810578
 30
0.0
 10
182.8259570898719
 20
169.9041640810578
 30
0.0
 10
182.8259570898719
 20
169.9041640810578
 30
0.0
 10
182.8259570898719
 20
198.9041596657119
 30
0.0
 10
182.8259570898719
 20
198.9041596657119
 30
0.0
 10
182.8259570898719
 20
199.4564515356904
 30
0.0
 10
182.3782453997163
 20
199.9041632258467
 30
0.0
 10
181.8259535297378
 20
199.9041632258467
 30
0.0
 10
181.8259535297378
 20
199.9041632258467
 30
0.0
 10
181.1759501390583
 20
199.9041632258467
 30
0.0
 10
181.1759501390583
 20
199.9041632258467
 30
0.0
 10
181.1759501390583
 20
199.9041632258467
 30
0.0
 10
146.1259577772153
 20
199.9041632258467
 30
0.0
 10
146.1259577772153
 20
199.9041632258467
 30
0.0
 10
146.1259577772153
 20
199.9041632258467
 30
0.0
 10
145.4759543865358
 20
199.9041632258467
 30
0.0
 10
145.4759543865358
 20
199.9041632258467
 30
0.0
 10
144.9236625165567
 20
199.9041632258467
 30
0.0
 10
144.4759508264017
 20
199.4564515356904
 30
0.0
 10
144.4759508264017
 20
198.9041596657119
 30
0.0
 10
144.4759508264017
 20
198.9041596657119
 30
0.0
 10
144.4759508264017
 20
169.9041640810578
 30
0.0
 10
144.4759508264017
 20
169.9041640810578
 30
0.0
 10
144.4759508264017
 20
169.9041640810578
 30
0.0
 10
142.8259438755881
 20
169.9041640810578
 30
0.0
 10
142.8259438755881
 20
169.9041640810578
 30
0.0
 10
142.8259438755881
 20
169.9041640810578
 30
0.0
 10
142.8259438755881
 20
198.9041596657119
 30
0.0
 10
142.8259438755881
 20
198.9041596657119
 30
0.0
 10
142.8259438755881
 20
199.4564515356904
 30
0.0
 10
142.3782321854331
 20
199.9041632258467
 30
0.0
 10
141.8259618473008
 20
199.9041632258467
 30
0.0
 10
141.8259618473008
 20
199.9041632258467
 30
0.0
 10
141.1759584566212
 20
199.9041632258467
 30
0.0
 10
141.1759584566212
 20
199.9041632258467
 30
0.0
 10
141.1759584566212
 20
199.9041632258467
 30
0.0
 10
111.6509518518602
 20
199.9041632258467
 30
0.0
 10
111.6509518518602
 20
199.9041632258467
 30
0.0
 10
107.232681487568
 20
199.9041632258467
 30
0.0
 10
103.6509449026344
 20
196.3224481727586
 30
0.0
 10
103.6509449026344
 20
191.9041562766218
 30
0.0
 10
103.6509449026344
 20
191.9041562766218
 30
0.0
 10
103.6509449026344
 20
162.379171203708
 30
0.0
 10
103.6509449026344
 20
162.379171203708
 30
0.0
 10
103.6509449026344
 20
162.379171203708
 30
0.0
 10
103.6509449026344
 20
161.7291678130265
 30
0.0
 10
103.6509449026344
 20
161.7291678130265
 30
0.0
 10
103.6509449026344
 20
161.1768759430487
 30
0.0
 10
104.0986781246362
 20
160.7291642528924
 30
0.0
 10
104.6509484627682
 20
160.7291642528924
 30
0.0
 10
104.6509484627682
 20
160.7291642528924
 30
0.0
 10
133.6509440474239
 20
160.7291642528924
 30
0.0
 10
133.6509440474239
 20
160.7291642528924
 30
0.0
 10
133.6509440474239
 20
160.7291642528924
 30
0.0
 10
133.6509440474239
 20
159.0791573020801
 30
0.0
 10
133.6509440474239
 20
159.0791573020801
 30
0.0
 10
133.6509440474239
 20
159.0791573020801
 30
0.0
 10
104.6509484627682
 20
159.0791573020801
 30
0.0
 10
104.6509484627682
 20
159.0791573020801
 30
0.0
 10
104.0986781246362
 20
159.0791573020801
 30
0.0
 10
103.6509449026344
 20
158.6314456119238
 30
0.0
 10
103.6509449026344
 20
158.0791537419453
 30
0.0
 10
103.6509449026344
 20
158.0791537419453
 30
0.0
 10
103.6509449026344
 20
157.4291718831119
 30
0.0
 10
103.6509449026344
 20
157.4291718831119
 30
0.0
 10
103.6509449026344
 20
157.4291718831119
 30
0.0
 10
103.6509449026344
 20
122.3791579894215
 30
0.0
 10
103.6509449026344
 20
122.3791579894215
 30
0.0
 10
103.6509449026344
 20
122.3791579894215
 30
0.0
 10
103.6509449026344
 20
121.7291545987439
 30
0.0
 10
103.6509449026344
 20
121.7291545987439
 30
0.0
 10
103.6509449026344
 20
121.1768842606103
 30
0.0
 10
104.0986781246362
 20
120.7291725704573
 30
0.0
 10
104.6509484627682
 20
120.7291725704573
 30
0.0
 10
104.6509484627682
 20
120.7291725704573
 30
0.0
 10
133.6509440474239
 20
120.7291725704573
 30
0.0
 10
133.6509440474239
 20
120.7291725704573
 30
0.0
 10
133.6509440474239
 20
120.7291725704573
 30
0.0
 10
133.6509440474239
 20
119.0791656196449
 30
0.0
 10
133.6509440474239
 20
119.0791656196449
 30
0.0
 10
133.6509440474239
 20
119.0791656196449
 30
0.0
 10
104.6509484627682
 20
119.0791656196449
 30
0.0
 10
104.6509484627682
 20
119.0791656196449
 30
0.0
 10
104.0986781246362
 20
119.0791656196449
 30
0.0
 10
103.6509449026344
 20
118.6314539294886
 30
0.0
 10
103.6509449026344
 20
118.0791620595108
 30
0.0
 10
103.6509449026344
 20
118.0791620595108
 30
0.0
 10
103.6509449026344
 20
117.4291586688294
 30
0.0
 10
103.6509449026344
 20
117.4291586688294
 30
0.0
 10
103.6509449026344
 20
117.4291586688294
 30
0.0
 10
103.6509449026344
 20
87.90417359591547
 30
0.0
 10
103.6509449026344
 20
87.90417359591547
 30
0.0
 10
103.6509449026344
 20
83.48588169977484
 30
0.0
 10
107.232681487568
 20
79.90416664669063
 30
0.0
 10
111.6509518518602
 20
79.90416664669063
 30
0.0
 10
111.6509518518602
 20
79.90416664669063
 30
0.0
 10
141.1759584566212
 20
79.90416664669063
 30
0.0
 10
141.1759584566212
 20
79.90416664669063
 30
0.0
 10
141.1759584566212
 20
79.90416664669063
 30
0.0
 10
141.8259618473008
 20
79.90416664669063
 30
0.0
 10
141.8259618473008
 20
79.90416664669063
 30
0.0
 10
142.3782321854331
 20
79.90416664669063
 30
0.0
 10
142.8259438755881
 20
80.35187833684306
 30
0.0
 10
142.8259438755881
 20
80.90417020682538
 30
0.0
 10
142.8259438755881
 20
80.90417020682538
 30
0.0
 10
142.8259438755881
 20
109.9041657914795
 30
0.0
 10
142.8259438755881
 20
109.9041657914795
 30
0.0
 10
142.8259438755881
 20
109.9041657914795
 30
0.0
 10
144.4759508264017
 20
109.9041657914795
 30
0.0
 10
144.4759508264017
 20
109.9041657914795
 30
0.0
 10
144.4759508264017
 20
109.9041657914795
 30
0.0
 10
144.4759508264017
 20
80.90417020682538
 30
0.0
 10
144.4759508264017
 20
80.90417020682538
 30
0.0
 10
144.4759508264017
 20
80.35187833684306
 30
0.0
 10
144.9236625165567
 20
79.90416664669063
 30
0.0
 10
145.4759543865358
 20
79.90416664669063
 30
0.0
 10
145.4759543865358
 20
79.90416664669063
 30
0.0
 10
146.1259577772153
 20
79.90416664669063
 30
0.0
 10
146.1259577772153
 20
79.90416664669063
 30
0.0
 10
146.1259577772153
 20
79.90416664669063
 30
0.0
 10
181.1759501390583
 20
79.90416664669063
 30
0.0
 10
181.1759501390583
 20
79.90416664669063
 30
0.0
 10
181.1759501390583
 20
79.90416664669063
 30
0.0
 10
181.8259535297378
 20
79.90416664669063
 30
0.0
 10
181.8259535297378
 20
79.90416664669063
 30
0.0
 10
182.3782453997163
 20
79.90416664669063
 30
0.0
 10
182.8259570898719
 20
80.35187833684306
 30
0.0
 10
182.8259570898719
 20
80.90417020682538
 30
0.0
 10
182.8259570898719
 20
80.90417020682538
 30
0.0
 10
182.8259570898719
 20
109.9041657914795
 30
0.0
 10
182.8259570898719
 20
109.9041657914795
 30
0.0
 10
182.8259570898719
 20
109.9041657914795
 30
0.0
 10
184.4759425088388
 20
109.9041657914795
 30
0.0
 10
184.4759425088388
 20
109.9041657914795
 30
0.0
 10
184.4759425088388
 20
109.9041657914795
 30
0.0
 10
184.4759425088388
 20
80.90417020682538
 30
0.0
 10
184.4759425088388
 20
80.90417020682538
 30
0.0
 10
184.4759425088388
 20
80.35187833684306
 30
0.0
 10
184.9236757308406
 20
79.90416664669063
 30
0.0
 10
185.4759460689729
 20
79.90416664669063
 30
0.0
 10
185.4759460689729
 20
79.90416664669063
 30
0.0
 10
186.1259494596524
 20
79.90416664669063
 30
0.0
 10
186.1259494596524
 20
79.90416664669063
 30
0.0
 10
186.1259494596524
 20
79.90416664669063
 30
0.0
 10
215.6509560644131
 20
79.90416664669063
 30
0.0
 10
215.6509560644131
 20
79.90416664669063
 30
0.0
 10
220.069226428705
 20
79.90416664669063
 30
0.0
 10
223.6509630136392
 20
83.48588169977484
 30
0.0
 10
223.6509630136392
 20
87.90417359591547
 30
0.0
 10
223.6509630136392
 20
87.90417359591547
 30
0.0
 10
223.6509630136392
 20
117.4291586688294
 30
0.0
 10
223.6509630136392
 20
117.4291586688294
 30
0.0
 10
223.6509630136392
 20
117.4291586688294
 30
0.0
 10
223.6509630136392
 20
118.0791620595108
 30
0.0
 10
223.6509630136392
 20
118.0791620595108
 30
0.0
 10
223.6509630136392
 20
118.6314539294886
 30
0.0
 10
223.2032297916368
 20
119.0791656196449
 30
0.0
 10
222.6509594535051
 20
119.0791656196449
 30
0.0
 10
222.6509594535051
 20
119.0791656196449
 30
0.0
 10
193.6509423370023
 20
119.0791656196449
 30
0.0
 10
193.6509423370023
 20
119.0791656196449
 30
0.0
 10
193.6509423370023
 20
119.0791656196449
 30
0.0
 10
193.6509423370023
 20
120.7291725704573
 30
0.0
 10
193.6509423370023
 20
120.7291725704573
 30
0.0
 10
193.6509423370023
 20
120.7291725704573
 30
0.0
 10
222.6509594535051
 20
120.7291725704573
 30
0.0
 10
222.6509594535051
 20
120.7291725704573
 30
0.0
 10
223.2032297916368
 20
120.7291725704573
 30
0.0
 10
223.6509630136392
 20
121.1768842606103
 30
0.0
 10
223.6509630136392
 20
121.7291545987439
 30
0.0
 10
223.6509630136392
 20
121.7291545987439
 30
0.0
 10
223.6509630136392
 20
122.3791579894215
 30
0.0
 10
223.6509630136392
 20
122.3791579894215
 30
0.0
 10
223.6509630136392
 20
122.3791579894215
 30
0.0
 10
223.6509630136392
 20
157.4291718831119
 30
0.0
 10
223.6509630136392
 20
157.4291718831119
 30
0.0
 10
223.6509630136392
 20
157.4291718831119
 30
0.0
 10
223.6509630136392
 20
158.0791537419453
 30
0.0
 10
223.6509630136392
 20
158.0791537419453
 30
0.0
 10
223.6509630136392
 20
158.6314456119238
 30
0.0
 10
223.2032297916368
 20
159.0791573020801
 30
0.0
 10
222.6509594535051
 20
159.0791573020801
 30
0.0
 10
222.6509594535051
 20
159.0791573020801
 30
0.0
 10
193.6509423370023
 20
159.0791573020801
 30
0.0
 10
193.6509423370023
 20
159.0791573020801
 30
0.0
 10
193.6509423370023
 20
159.0791573020801
 30
0.0
 10
193.6509423370023
 20
160.7291642528924
 30
0.0
 10
193.6509423370023
 20
160.7291642528924
 30
0.0
 10
193.6509423370023
 20
160.7291642528924
 30
0.0
 10
222.6509594535051
 20
160.7291642528924
 30
0.0
 10
222.6509594535051
 20
160.7291642528924
 30
0.0
 10
223.2032297916368
 20
160.7291642528924
 30
0.0
 10
223.6509630136392
 20
161.1768759430487
 30
0.0
 10
223.6509630136392
 20
161.7291678130265
 30
0.0
 10
223.6509630136392
 20
161.7291678130265
 30
0.0
 10
223.6509630136392
 20
162.379171203708
 30
0.0
 10
223.6509630136392
 20
162.379171203708
 30
0.0
 10
223.6509630136392
 20
162.379171203708
 30
0.0
 10
223.6509630136392
 20
191.9041562766218
 30
0.0
 10
223.6509630136392
 20
191.9041562766218
 30
0.0
 10
223.6509630136392
 20
196.3224481727586
 30
0.0
 10
220.069226428705
 20
199.9041632258467
 30
0.0
 10
215.6509560644131
 20
199.9041632258467
 30
0.0
  0
SPLINE
  5
47
330
1F
100
AcDbEntity
  8
0
 62
   250
100
AcDbSpline
210
0.0
220
0.0
230
1.0
 70
    11
 71
     3
 72
   221
 73
   217
 74
     0
 42
0.0000000001
 43
0.0000000001
 12
1.0
 22
0.0
 32
0.0
 13
1.0
 23
0.0
 33
0.0
 40
0.0
 40
0.0
 40
0.0
 40
0.0
 40
1.0
 40
1.0
 40
1.0
 40
2.0
 40
2.0
 40
2.0
 40
3.0
 40
3.0
 40
3.0
 40
4.0
 40
4.0
 40
4.0
 40
5.0
 40
5.0
 40
5.0
 40
6.0
 40
6.0
 40
6.0
 40
7.0
 40
7.0
 40
7.0
 40
8.0
 40
8.0
 40
8.0
 40
9.0
 40
9.0
 40
9.0
 40
10.0
 40
10.0
 40
10.0
 40
11.0
 40
11.0
 40
11.0
 40
12.0
 40
12.0
 40
12.0
 40
13.0
 40
13.0
 40
13.0
 40
14.0
 40
14.0
 40
14.0
 40
15.0
 40
15.0
 40
15.0
 40
16.0
 40
16.0
 40
16.0
 40
17.0
 40
17.0
 40
17.0
 40
18.0
 40
18.0
 40
18.0
 40
19.0
 40
19.0
 40
19.0
 40
20.0
 40
20.0
 40
20.0
 40
21.0
 40
21.0
 40
21.0
 40
22.0
 40
22.0
 40
22.0
 40
23.0
 40
23.0
 40
23.0
 40
24.0
 40
24.0
 40
24.0
 40
25.0
 40
25.0
 40
25.0
 40
26.0
 40
26.0
 40
26.0
 40
27.0
 40
27.0
 40
27.0
 40
28.0
 40
28.0
 40
28.0
 40
29.0
 40
29.0
 40
29.0
 40
30.0
 40
30.0
 40
30.0
 40
31.0
 40
31.0
 40
31.0
 40
32.0
 40
32.0
 40
32.0
 40
33.0
 40
33.0
 40
33.0
 40
34.0
 40
34.0
 40
34.0
 40
35.0
 40
35.0
 40
35.0
 40
36.0
 40
36.0
 40
36.0
 40
37.0
 40
37.0
 40
37.0
 40
38.0
 40
38.0
 40
38.0
 40
39.0
 40
39.0
 40
39.0
 40
40.0
 40
40.0
 40
40.0
 40
41.0
 40
41.0
 40
41.0
 40
42.0
 40
42.0
 40
42.0
 40
43.0
 40
43.0
 40
43.0
 40
44.0
 40
44.0
 40
44.0
 40
45.0
 40
45.0
 40
45.0
 40
46.0
 40
46.0
 40
46.0
 40
47.0
 40
47.0
 40
47.0
 40
48.0
 40
48.0
 40
48.0
 40
49.0
 40
49.0
 40
49.0
 40
50.0
 40
50.0
 40
50.0
 40
51.0
 40
51.0
 40
51.0
 40
52.0
 40
52.0
 40
52.0
 40
53.0
 40
53.0
 40
53.0
 40
54.0
 40
54.0
 40
54.0
 40
55.0
 40
55.0
 40
55.0
 40
56.0
 40
56.0
 40
56.0
 40
57.0
 40
57.0
 40
57.0
 40
58.0
 40
58.0
 40
58.0
 40
59.0
 40
59.0
 40
59.0
 40
60.0
 40
60.0
 40
60.0
 40
61.0
 40
61.0
 40
61.0
 40
62.0
 40
62.0
 40
62.0
 40
63.0
 40
63.0
 40
63.0
 40
64.0
 40
64.0
 40
64.0
 40
65.0
 40
65.0
 40
65.0
 40
66.0
 40
66.0
 40
66.0
 40
67.0
 40
67.0
 40
67.0
 40
68.0
 40
68.0
 40
68.0
 40
69.0
 40
69.0
 40
69.0
 40
70.0
 40
70.0
 40
70.0
 40
71.0
 40
71.0
 40
71.0
 40
72.0
 40
72.0
 40
72.0
 40
72.0
 10
335.6509526435743
 20
199.9041632258467
 30
0.0
 10
335.6509526435743
 20
199.9041632258467
 30
0.0
 10
306.125946038813
 20
199.9041632258467
 30
0.0
 10
306.125946038813
 20
199.9041632258467
 30
0.0
 10
306.125946038813
 20
199.9041632258467
 30
0.0
 10
305.4759426481335
 20
199.9041632258467
 30
0.0
 10
305.4759426481335
 20
199.9041632258467
 30
0.0
 10
304.9236723100011
 20
199.9041632258467
 30
0.0
 10
304.475939088
 20
199.4564515356904
 30
0.0
 10
304.475939088
 20
198.9041596657119
 30
0.0
 10
304.475939088
 20
198.9041596657119
 30
0.0
 10
304.475939088
 20
169.9041640810578
 30
0.0
 10
304.475939088
 20
169.9041640810578
 30
0.0
 10
304.475939088
 20
169.9041640810578
 30
0.0
 10
302.8259536690325
 20
169.9041640810578
 30
0.0
 10
302.8259536690325
 20
169.9041640810578
 30
0.0
 10
302.8259536690325
 20
169.9041640810578
 30
0.0
 10
302.8259536690325
 20
198.9041596657119
 30
0.0
 10
302.8259536690325
 20
198.9041596657119
 30
0.0
 10
302.8259536690325
 20
199.4564515356904
 30
0.0
 10
302.3782419788775
 20
199.9041632258467
 30
0.0
 10
301.8259501088984
 20
199.9041632258467
 30
0.0
 10
301.8259501088984
 20
199.9041632258467
 30
0.0
 10
301.1759467182189
 20
199.9041632258467
 30
0.0
 10
301.1759467182189
 20
199.9041632258467
 30
0.0
 10
301.1759467182189
 20
199.9041632258467
 30
0.0
 10
266.1259543563759
 20
199.9041632258467
 30
0.0
 10
266.1259543563759
 20
199.9041632258467
 30
0.0
 10
266.1259543563759
 20
199.9041632258467
 30
0.0
 10
265.4759509656964
 20
199.9041632258467
 30
0.0
 10
265.4759509656964
 20
199.9041632258467
 30
0.0
 10
264.9236590957179
 20
199.9041632258467
 30
0.0
 10
264.4759474055623
 20
199.4564515356904
 30
0.0
 10
264.4759474055623
 20
198.9041596657119
 30
0.0
 10
264.4759474055623
 20
198.9041596657119
 30
0.0
 10
264.4759474055623
 20
169.9041640810578
 30
0.0
 10
264.4759474055623
 20
169.9041640810578
 30
0.0
 10
264.4759474055623
 20
169.9041640810578
 30
0.0
 10
262.8259404547493
 20
169.9041640810578
 30
0.0
 10
262.8259404547493
 20
169.9041640810578
 30
0.0
 10
262.8259404547493
 20
169.9041640810578
 30
0.0
 10
262.8259404547493
 20
198.9041596657119
 30
0.0
 10
262.8259404547493
 20
198.9041596657119
 30
0.0
 10
262.8259404547493
 20
199.4564515356904
 30
0.0
 10
262.3782287645936
 20
199.9041632258467
 30
0.0
 10
261.8259584264613
 20
199.9041632258467
 30
0.0
 10
261.8259584264613
 20
199.9041632258467
 30
0.0
 10
261.1759550357818
 20
199.9041632258467
 30
0.0
 10
261.1759550357818
 20
199.9041632258467
 30
0.0
 10
261.1759550357818
 20
199.9041632258467
 30
0.0
 10
231.6509484310211
 20
199.9041632258467
 30
0.0
 10
231.6509484310211
 20
199.9041632258467
 30
0.0
 10
227.2326780667279
 20
199.9041632258467
 30
0.0
 10
223.650941481795
 20
196.3224481727586
 30
0.0
 10
223.650941481795
 20
191.9041562766218
 30
0.0
 10
223.650941481795
 20
191.9041562766218
 30
0.0
 10
223.650941481795
 20
162.379171203708
 30
0.0
 10
223.650941481795
 20
162.379171203708
 30
0.0
 10
223.650941481795
 20
162.379171203708
 30
0.0
 10
223.650941481795
 20
161.7291678130265
 30
0.0
 10
223.650941481795
 20
161.7291678130265
 30
0.0
 10
223.650941481795
 20
161.1768759430487
 30
0.0
 10
224.0986747037961
 20
160.7291642528924
 30
0.0
 10
224.6509450419291
 20
160.7291642528924
 30
0.0
 10
224.6509450419291
 20
160.7291642528924
 30
0.0
 10
253.6509406265845
 20
160.7291642528924
 30
0.0
 10
253.6509406265845
 20
160.7291642528924
 30
0.0
 10
253.6509406265845
 20
160.7291642528924
 30
0.0
 10
253.6509406265845
 20
159.0791573020801
 30
0.0
 10
253.6509406265845
 20
159.0791573020801
 30
0.0
 10
253.6509406265845
 20
159.0791573020801
 30
0.0
 10
224.6509450419291
 20
159.0791573020801
 30
0.0
 10
224.6509450419291
 20
159.0791573020801
 30
0.0
 10
224.0986747037961
 20
159.0791573020801
 30
0.0
 10
223.650941481795
 20
158.6314456119238
 30
0.0
 10
223.650941481795
 20
158.0791537419453
 30
0.0
 10
223.650941481795
 20
158.0791537419453
 30
0.0
 10
223.650941481795
 20
157.4291718831119
 30
0.0
 10
223.650941481795
 20
157.4291718831119
 30
0.0
 10
223.650941481795
 20
157.4291718831119
 30
0.0
 10
223.650941481795
 20
122.3791579894215
 30
0.0
 10
223.650941481795
 20
122.3791579894215
 30
0.0
 10
223.650941481795
 20
122.3791579894215
 30
0.0
 10
223.650941481795
 20
121.7291545987439
 30
0.0
 10
223.650941481795
 20
121.7291545987439
 30
0.0
 10
223.650941481795
 20
121.1768842606103
 30
0.0
 10
224.0986747037961
 20
120.7291725704573
 30
0.0
 10
224.6509450419291
 20
120.7291725704573
 30
0.0
 10
224.6509450419291
 20
120.7291725704573
 30
0.0
 10
253.6509406265845
 20
120.7291725704573
 30
0.0
 10
253.6509406265845
 20
120.7291725704573
 30
0.0
 10
253.6509406265845
 20
120.7291725704573
 30
0.0
 10
253.6509406265845
 20
119.0791656196449
 30
0.0
 10
253.6509406265845
 20
119.0791656196449
 30
0.0
 10
253.6509406265845
 20
119.0791656196449
 30
0.0
 10
224.6509450419291
 20
119.0791656196449
 30
0.0
 10
224.6509450419291
 20
119.0791656196449
 30
0.0
 10
224.0986747037961
 20
119.0791656196449
 30
0.0
 10
223.650941481795
 20
118.6314539294886
 30
0.0
 10
223.650941481795
 20
118.0791620595108
 30
0.0
 10
223.650941481795
 20
118.0791620595108
 30
0.0
 10
223.650941481795
 20
117.4291586688294
 30
0.0
 10
223.650941481795
 20
117.4291586688294
 30
0.0
 10
223.650941481795
 20
117.4291586688294
 30
0.0
 10
223.650941481795
 20
87.90417359591547
 30
0.0
 10
223.650941481795
 20
87.90417359591547
 30
0.0
 10
223.650941481795
 20
83.48588169977484
 30
0.0
 10
227.2326780667279
 20
79.90416664669063
 30
0.0
 10
231.6509484310211
 20
79.90416664669063
 30
0.0
 10
231.6509484310211
 20
79.90416664669063
 30
0.0
 10
261.1759550357818
 20
79.90416664669063
 30
0.0
 10
261.1759550357818
 20
79.90416664669063
 30
0.0
 10
261.1759550357818
 20
79.90416664669063
 30
0.0
 10
261.8259584264613
 20
79.90416664669063
 30
0.0
 10
261.8259584264613
 20
79.90416664669063
 30
0.0
 10
262.3782287645936
 20
79.90416664669063
 30
0.0
 10
262.8259404547493
 20
80.35187833684306
 30
0.0
 10
262.8259404547493
 20
80.90417020682538
 30
0.0
 10
262.8259404547493
 20
80.90417020682538
 30
0.0
 10
262.8259404547493
 20
109.9041657914795
 30
0.0
 10
262.8259404547493
 20
109.9041657914795
 30
0.0
 10
262.8259404547493
 20
109.9041657914795
 30
0.0
 10
264.4759474055623
 20
109.9041657914795
 30
0.0
 10
264.4759474055623
 20
109.9041657914795
 30
0.0
 10
264.4759474055623
 20
109.9041657914795
 30
0.0
 10
264.4759474055623
 20
80.90417020682538
 30
0.0
 10
264.4759474055623
 20
80.90417020682538
 30
0.0
 10
264.4759474055623
 20
80.35187833684306
 30
0.0
 10
264.9236590957179
 20
79.90416664669063
 30
0.0
 10
265.4759509656964
 20
79.90416664669063
 30
0.0
 10
265.4759509656964
 20
79.90416664669063
 30
0.0
 10
266.1259543563759
 20
79.90416664669063
 30
0.0
 10
266.1259543563759
 20
79.90416664669063
 30
0.0
 10
266.1259543563759
 20
79.90416664669063
 30
0.0
 10
301.1759467182189
 20
79.90416664669063
 30
0.0
 10
301.1759467182189
 20
79.90416664669063
 30
0.0
 10
301.1759467182189
 20
79.90416664669063
 30
0.0
 10
301.8259501088984
 20
79.90416664669063
 30
0.0
 10
301.8259501088984
 20
79.90416664669063
 30
0.0
 10
302.3782419788775
 20
79.90416664669063
 30
0.0
 10
302.8259536690325
 20
80.35187833684306
 30
0.0
 10
302.8259536690325
 20
80.90417020682538
 30
0.0
 10
302.8259536690325
 20
80.90417020682538
 30
0.0
 10
302.8259536690325
 20
109.9041657914795
 30
0.0
 10
302.8259536690325
 20
109.9041657914795
 30
0.0
 10
302.8259536690325
 20
109.9041657914795
 30
0.0
 10
304.475939088
 20
109.9041657914795
 30
0.0
 10
304.475939088
 20
109.9041657914795
 30
0.0
 10
304.475939088
 20
109.9041657914795
 30
0.0
 10
304.475939088
 20
80.90417020682538
 30
0.0
 10
304.475939088
 20
80.90417020682538
 30
0.0
 10
304.475939088
 20
80.35187833684306
 30
0.0
 10
304.9236723100011
 20
79.90416664669063
 30
0.0
 10
305.4759426481335
 20
79.90416664669063
 30
0.0
 10
305.4759426481335
 20
79.90416664669063
 30
0.0
 10
306.125946038813
 20
79.90416664669063
 30
0.0
 10
306.125946038813
 20
79.90416664669063
 30
0.0
 10
306.125946038813
 20
79.90416664669063
 30
0.0
 10
335.6509526435743
 20
79.90416664669063
 30
0.0
 10
335.6509526435743
 20
79.90416664669063
 30
0.0
 10
340.0692230078662
 20
79.90416664669063
 30
0.0
 10
343.6509595927998
 20
83.48588169977484
 30
0.0
 10
343.6509595927998
 20
87.90417359591547
 30
0.0
 10
343.6509595927998
 20
87.90417359591547
 30
0.0
 10
343.6509595927998
 20
117.4291586688294
 30
0.0
 10
343.6509595927998
 20
117.4291586688294
 30
0.0
 10
343.6509595927998
 20
117.4291586688294
 30
0.0
 10
343.6509595927998
 20
118.0791620595108
 30
0.0
 10
343.6509595927998
 20
118.0791620595108
 30
0.0
 10
343.6509595927998
 20
118.6314539294886
 30
0.0
 10
343.203226370798
 20
119.0791656196449
 30
0.0
 10
342.6509560326663
 20
119.0791656196449
 30
0.0
 10
342.6509560326663
 20
119.0791656196449
 30
0.0
 10
313.6509389161635
 20
119.0791656196449
 30
0.0
 10
313.6509389161635
 20
119.0791656196449
 30
0.0
 10
313.6509389161635
 20
119.0791656196449
 30
0.0
 10
313.6509389161635
 20
120.7291725704573
 30
0.0
 10
313.6509389161635
 20
120.7291725704573
 30
0.0
 10
313.6509389161635
 20
120.7291725704573
 30
0.0
 10
342.6509560326663
 20
120.7291725704573
 30
0.0
 10
342.6509560326663
 20
120.7291725704573
 30
0.0
 10
343.203226370798
 20
120.7291725704573
 30
0.0
 10
343.6509595927998
 20
121.1768842606103
 30
0.0
 10
343.6509595927998
 20
121.7291545987439
 30
0.0
 10
343.6509595927998
 20
121.7291545987439
 30
0.0
 10
343.6509595927998
 20
122.3791579894215
 30
0.0
 10
343.6509595927998
 20
122.3791579894215
 30
0.0
 10
343.6509595927998
 20
122.3791579894215
 30
0.0
 10
343.6509595927998
 20
157.4291718831119
 30
0.0
 10
343.6509595927998
 20
157.4291718831119
 30
0.0
 10
343.6509595927998
 20
157.4291718831119
 30
0.0
 10
343.6509595927998
 20
158.0791537419453
 30
0.0
 10
343.6509595927998
 20
158.0791537419453
 30
0.0
 10
343.6509595927998
 20
158.6314456119238
 30
0.0
 10
343.203226370798
 20
159.0791573020801
 30
0.0
 10
342.6509560326663
 20
159.0791573020801
 30
0.0
 10
342.6509560326663
 20
159.0791573020801
 30
0.0
 10
313.6509389161635
 20
159.0791573020801
 30
0.0
 10
313.6509389161635
 20
159.0791573020801
 30
0.0
 10
313.6509389161635
 20
159.0791573020801
 30
0.0
 10
313.6509389161635
 20
160.7291642528924
 30
0.0
 10
313.6509389161635
 20
160.7291642528924
 30
0.0
 10
313.6509389161635
 20
160.7291642528924
 30
0.0
 10
342.6509560326663
 20
160.7291642528924
 30
0.0
 10
342.6509560326663
 20
160.7291642528924
 30
0.0
 10
343.203226370798
 20
160.7291642528924
 30
0.0
 10
343.6509595927998
 20
161.1768759430487
 30
0.0
 10
343.6509595927998
 20
161.7291678130265
 30
0.0
 10
343.6509595927998
 20
161.7291678130265
 30
0.0
 10
343.6509595927998
 20
162.379171203708
 30
0.0
 10
343.6509595927998
 20
162.379171203708
 30
0.0
 10
343.6509595927998
 20
162.379171203708
 30
0.0
 10
343.6509595927998
 20
191.9041562766218
 30
0.0
 10
343.6509595927998
 20
191.9041562766218
 30
0.0
 10
343.6509595927998
 20
196.3224481727586
 30
0.0
 10
340.0692230078662
 20
199.9041632258467
 30
0.0
 10
335.6509526435743
 20
199.9041632258467
 30
0.0
  0
SPLINE
  5
48
330
1F
100
AcDbEntity
  8
0
 62
   250
100
AcDbSpline
210
0.0
220
0.0
230
1.0
 70
    11
 71
     3
 72
   221
 73
   217
 74
     0
 42
0.0000000001
 43
0.0000000001
 12
1.0
 22
0.0
 32
0.0
 13
1.0
 23
0.0
 33
0.0
 40
0.0
 40
0.0
 40
0.0
 40
0.0
 40
1.0
 40
1.0
 40
1.0
 40
2.0
 40
2.0
 40
2.0
 40
3.0
 40
3.0
 40
3.0
 40
4.0
 40
4.0
 40
4.0
 40
5.0
 40
5.0
 40
5.0
 40
6.0
 40
6.0
 40
6.0
 40
7.0
 40
7.0
 40
7.0
 40
8.0
 40
8.0
 40
8.0
 40
9.0
 40
9.0
 40
9.0
 40
10.0
 40
10.0
 40
10.0
 40
11.0
 40
11.0
 40
11.0
 40
12.0
 40
12.0
 40
12.0
 40
13.0
 40
13.0
 40
13.0
 40
14.0
 40
14.0
 40
14.0
 40
15.0
 40
15.0
 40
15.0
 40
16.0
 40
16.0
 40
16.0
 40
17.0
 40
17.0
 40
17.0
 40
18.0
 40
18.0
 40
18.0
 40
19.0
 40
19.0
 40
19.0
 40
20.0
 40
20.0
 40
20.0
 40
21.0
 40
21.0
 40
21.0
 40
22.0
 40
22.0
 40
22.0
 40
23.0
 40
23.0
 40
23.0
 40
24.0
 40
24.0
 40
24.0
 40
25.0
 40
25.0
 40
25.0
 40
26.0
 40
26.0
 40
26.0
 40
27.0
 40
27.0
 40
27.0
 40
28.0
 40
28.0
 40
28.0
 40
29.0
 40
29.0
 40
29.0
 40
30.0
 40
30.0
 40
30.0
 40
31.0
 40
31.0
 40
31.0
 40
32.0
 40
32.0
 40
32.0
 40
33.0
 40
33.0
 40
33.0
 40
34.0
 40
34.0
 40
34.0
 40
35.0
 40
35.0
 40
35.0
 40
36.0
 40
36.0
 40
36.0
 40
37.0
 40
37.0
 40
37.0
 40
38.0
 40
38.0
 40
38.0
 40
39.0
 40
39.0
 40
39.0
 40
40.0
 40
40.0
 40
40.0
 40
41.0
 40
41.0
 40
41.0
 40
42.0
 40
42.0
 40
42.0
 40
43.0
 40
43.0
 40
43.0
 40
44.0
 40
44.0
 40
44.0
 40
45.0
 40
45.0
 40
45.0
 40
46.0
 40
46.0
 40
46.0
 40
47.0
 40
47.0
 40
47.0
 40
48.0
 40
48.0
 40
48.0
 40
49.0
 40
49.0
 40
49.0
 40
50.0
 40
50.0
 40
50.0
 40
51.0
 40
51.0
 40
51.0
 40
52.0
 40
52.0
 40
52.0
 40
53.0
 40
53.0
 40
53.0
 40
54.0
 40
54.0
 40
54.0
 40
55.0
 40
55.0
 40
55.0
 40
56.0
 40
56.0
 40
56.0
 40
57.0
 40
57.0
 40
57.0
 40
58.0
 40
58.0
 40
58.0
 40
59.0
 40
59.0
 40
59.0
 40
60.0
 40
60.0
 40
60.0
 40
61.0
 40
61.0
 40
61.0
 40
62.0
 40
62.0
 40
62.0
 40
63.0
 40
63.0
 40
63.0
 40
64.0
 40
64.0
 40
64.0
 40
65.0
 40
65.0
 40
65.0
 40
66.0
 40
66.0
 40
66.0
 40
67.0
 40
67.0
 40
67.0
 40
68.0
 40
68.0
 40
68.0
 40
69.0
 40
69.0
 40
69.0
 40
70.0
 40
70.0
 40
70.0
 40
71.0
 40
71.0
 40
71.0
 40
72.0
 40
72.0
 40
72.0
 40
72.0
 10
455.6509492227342
 20
199.9041632258467
 30
0.0
 10
455.6509492227342
 20
199.9041632258467
 30
0.0
 10
426.1259426179735
 20
199.9041632258467
 30
0.0
 10
426.1259426179735
 20
199.9041632258467
 30
0.0
 10
426.1259426179735
 20
199.9041632258467
 30
0.0
 10
425.475939227294
 20
199.9041632258467
 30
0.0
 10
425.475939227294
 20
199.9041632258467
 30
0.0
 10
424.9236688891617
 20
199.9041632258467
 30
0.0
 10
424.4759356671599
 20
199.4564515356904
 30
0.0
 10
424.4759356671599
 20
198.9041596657119
 30
0.0
 10
424.4759356671599
 20
198.9041596657119
 30
0.0
 10
424.4759356671599
 20
169.9041640810578
 30
0.0
 10
424.4759356671599
 20
169.9041640810578
 30
0.0
 10
424.4759356671599
 20
169.9041640810578
 30
0.0
 10
422.8259502481931
 20
169.9041640810578
 30
0.0
 10
422.8259502481931
 20
169.9041640810578
 30
0.0
 10
422.8259502481931
 20
169.9041640810578
 30
0.0
 10
422.8259502481931
 20
198.9041596657119
 30
0.0
 10
422.8259502481931
 20
198.9041596657119
 30
0.0
 10
422.8259502481931
 20
199.4564515356904
 30
0.0
 10
422.378238558038
 20
199.9041632258467
 30
0.0
 10
421.8259466880589
 20
199.9041632258467
 30
0.0
 10
421.8259466880589
 20
199.9041632258467
 30
0.0
 10
421.1759432973794
 20
199.9041632258467
 30
0.0
 10
421.1759432973794
 20
199.9041632258467
 30
0.0
 10
421.1759432973794
 20
199.9041632258467
 30
0.0
 10
386.1259509355365
 20
199.9041632258467
 30
0.0
 10
386.1259509355365
 20
199.9041632258467
 30
0.0
 10
386.1259509355365
 20
199.9041632258467
 30
0.0
 10
385.4759475448569
 20
199.9041632258467
 30
0.0
 10
385.4759475448569
 20
199.9041632258467
 30
0.0
 10
384.9236556748778
 20
199.9041632258467
 30
0.0
 10
384.4759439847228
 20
199.4564515356904
 30
0.0
 10
384.4759439847228
 20
198.9041596657119
 30
0.0
 10
384.4759439847228
 20
198.9041596657119
 30
0.0
 10
384.4759439847228
 20
169.9041640810578
 30
0.0
 10
384.4759439847228
 20
169.9041640810578
 30
0.0
 10
384.4759439847228
 20
169.9041640810578
 30
0.0
 10
382.8259370339092
 20
169.9041640810578
 30
0.0
 10
382.8259370339092
 20
169.9041640810578
 30
0.0
 10
382.8259370339092
 20
169.9041640810578
 30
0.0
 10
382.8259370339092
 20
198.9041596657119
 30
0.0
 10
382.8259370339092
 20
198.9041596657119
 30
0.0
 10
382.8259370339092
 20
199.4564515356904
 30
0.0
 10
382.3782253437542
 20
199.9041632258467
 30
0.0
 10
381.8259550056219
 20
199.9041632258467
 30
0.0
 10
381.8259550056219
 20
199.9041632258467
 30
0.0
 10
381.1759516149423
 20
199.9041632258467
 30
0.0
 10
381.1759516149423
 20
199.9041632258467
 30
0.0
 10
381.1759516149423
 20
199.9041632258467
 30
0.0
 10
351.6509450101817
 20
199.9041632258467
 30
0.0
 10
351.6509450101817
 20
199.9041632258467
 30
0.0
 10
347.2326746458891
 20
199.9041632258467
 30
0.0
 10
343.6509380609556
 20
196.3224481727586
 30
0.0
 10
343.6509380609556
 20
191.9041562766218
 30
0.0
 10
343.6509380609556
 20
191.9041562766218
 30
0.0
 10
343.6509380609556
 20
162.379171203708
 30
0.0
 10
343.6509380609556
 20
162.379171203708
 30
0.0
 10
343.6509380609556
 20
162.379171203708
 30
0.0
 10
343.6509380609556
 20
161.7291678130265
 30
0.0
 10
343.6509380609556
 20
161.7291678130265
 30
0.0
 10
343.6509380609556
 20
161.1768759430487
 30
0.0
 10
344.0986712829574
 20
160.7291642528924
 30
0.0
 10
344.6509416210897
 20
160.7291642528924
 30
0.0
 10
344.6509416210897
 20
160.7291642528924
 30
0.0
 10
373.650937205745
 20
160.7291642528924
 30
0.0
 10
373.650937205745
 20
160.7291642528924
 30
0.0
 10
373.650937205745
 20
160.7291642528924
 30
0.0
 10
373.650937205745
 20
159.0791573020801
 30
0.0
 10
373.650937205745
 20
159.0791573020801
 30
0.0
 10
373.650937205745
 20
159.0791573020801
 30
0.0
 10
344.6509416210897
 20
159.0791573020801
 30
0.0
 10
344.6509416210897
 20
159.0791573020801
 30
0.0
 10
344.0986712829574
 20
159.0791573020801
 30
0.0
 10
343.6509380609556
 20
158.6314456119238
 30
0.0
 10
343.6509380609556
 20
158.0791537419453
 30
0.0
 10
343.6509380609556
 20
158.0791537419453
 30
0.0
 10
343.6509380609556
 20
157.4291718831119
 30
0.0
 10
343.6509380609556
 20
157.4291718831119
 30
0.0
 10
343.6509380609556
 20
157.4291718831119
 30
0.0
 10
343.6509380609556
 20
122.3791579894215
 30
0.0
 10
343.6509380609556
 20
122.3791579894215
 30
0.0
 10
343.6509380609556
 20
122.3791579894215
 30
0.0
 10
343.6509380609556
 20
121.7291545987439
 30
0.0
 10
343.6509380609556
 20
121.7291545987439
 30
0.0
 10
343.6509380609556
 20
121.1768842606103
 30
0.0
 10
344.0986712829574
 20
120.7291725704573
 30
0.0
 10
344.6509416210897
 20
120.7291725704573
 30
0.0
 10
344.6509416210897
 20
120.7291725704573
 30
0.0
 10
373.650937205745
 20
120.7291725704573
 30
0.0
 10
373.650937205745
 20
120.7291725704573
 30
0.0
 10
373.650937205745
 20
120.7291725704573
 30
0.0
 10
373.650937205745
 20
119.0791656196449
 30
0.0
 10
373.650937205745
 20
119.0791656196449
 30
0.0
 10
373.650937205745
 20
119.0791656196449
 30
0.0
 10
344.6509416210897
 20
119.0791656196449
 30
0.0
 10
344.6509416210897
 20
119.0791656196449
 30
0.0
 10
344.0986712829574
 20
119.0791656196449
 30
0.0
 10
343.6509380609556
 20
118.6314539294886
 30
0.0
 10
343.6509380609556
 20
118.0791620595108
 30
0.0
 10
343.6509380609556
 20
118.0791620595108
 30
0.0
 10
343.6509380609556
 20
117.4291586688294
 30
0.0
 10
343.6509380609556
 20
117.4291586688294
 30
0.0
 10
343.6509380609556
 20
117.4291586688294
 30
0.0
 10
343.6509380609556
 20
87.90417359591547
 30
0.0
 10
343.6509380609556
 20
87.90417359591547
 30
0.0
 10
343.6509380609556
 20
83.48588169977484
 30
0.0
 10
347.2326746458891
 20
79.90416664669063
 30
0.0
 10
351.6509450101817
 20
79.90416664669063
 30
0.0
 10
351.6509450101817
 20
79.90416664669063
 30
0.0
 10
381.1759516149423
 20
79.90416664669063
 30
0.0
 10
381.1759516149423
 20
79.90416664669063
 30
0.0
 10
381.1759516149423
 20
79.90416664669063
 30
0.0
 10
381.8259550056219
 20
79.90416664669063
 30
0.0
 10
381.8259550056219
 20
79.90416664669063
 30
0.0
 10
382.3782253437542
 20
79.90416664669063
 30
0.0
 10
382.8259370339092
 20
80.35187833684306
 30
0.0
 10
382.8259370339092
 20
80.90417020682538
 30
0.0
 10
382.8259370339092
 20
80.90417020682538
 30
0.0
 10
382.8259370339092
 20
109.9041657914795
 30
0.0
 10
382.8259370339092
 20
109.9041657914795
 30
0.0
 10
382.8259370339092
 20
109.9041657914795
 30
0.0
 10
384.4759439847228
 20
109.9041657914795
 30
0.0
 10
384.4759439847228
 20
109.9041657914795
 30
0.0
 10
384.4759439847228
 20
109.9041657914795
 30
0.0
 10
384.4759439847228
 20
80.90417020682538
 30
0.0
 10
384.4759439847228
 20
80.90417020682538
 30
0.0
 10
384.4759439847228
 20
80.35187833684306
 30
0.0
 10
384.9236556748778
 20
79.90416664669063
 30
0.0
 10
385.4759475448569
 20
79.90416664669063
 30
0.0
 10
385.4759475448569
 20
79.90416664669063
 30
0.0
 10
386.1259509355365
 20
79.90416664669063
 30
0.0
 10
386.1259509355365
 20
79.90416664669063
 30
0.0
 10
386.1259509355365
 20
79.90416664669063
 30
0.0
 10
421.1759432973794
 20
79.90416664669063
 30
0.0
 10
421.1759432973794
 20
79.90416664669063
 30
0.0
 10
421.1759432973794
 20
79.90416664669063
 30
0.0
 10
421.8259466880589
 20
79.90416664669063
 30
0.0
 10
421.8259466880589
 20
79.90416664669063
 30
0.0
 10
422.378238558038
 20
79.90416664669063
 30
0.0
 10
422.8259502481931
 20
80.35187833684306
 30
0.0
 10
422.8259502481931
 20
80.90417020682538
 30
0.0
 10
422.8259502481931
 20
80.90417020682538
 30
0.0
 10
422.8259502481931
 20
109.9041657914795
 30
0.0
 10
422.8259502481931
 20
109.9041657914795
 30
0.0
 10
422.8259502481931
 20
109.9041657914795
 30
0.0
 10
424.4759356671599
 20
109.9041657914795
 30
0.0
 10
424.4759356671599
 20
109.9041657914795
 30
0.0
 10
424.4759356671599
 20
109.9041657914795
 30
0.0
 10
424.4759356671599
 20
80.90417020682538
 30
0.0
 10
424.4759356671599
 20
80.90417020682538
 30
0.0
 10
424.4759356671599
 20
80.35187833684306
 30
0.0
 10
424.9236688891617
 20
79.90416664669063
 30
0.0
 10
425.475939227294
 20
79.90416664669063
 30
0.0
 10
425.475939227294
 20
79.90416664669063
 30
0.0
 10
426.1259426179735
 20
79.90416664669063
 30
0.0
 10
426.1259426179735
 20
79.90416664669063
 30
0.0
 10
426.1259426179735
 20
79.90416664669063
 30
0.0
 10
455.6509492227342
 20
79.90416664669063
 30
0.0
 10
455.6509492227342
 20
79.90416664669063
 30
0.0
 10
460.0692195870268
 20
79.90416664669063
 30
0.0
 10
463.6509561719603
 20
83.48588169977484
 30
0.0
 10
463.6509561719603
 20
87.90417359591547
 30
0.0
 10
463.6509561719603
 20
87.90417359591547
 30
0.0
 10
463.6509561719603
 20
117.4291586688294
 30
0.0
 10
463.6509561719603
 20
117.4291586688294
 30
0.0
 10
463.6509561719603
 20
117.4291586688294
 30
0.0
 10
463.6509561719603
 20
118.0791620595108
 30
0.0
 10
463.6509561719603
 20
118.0791620595108
 30
0.0
 10
463.6509561719603
 20
118.6314539294886
 30
0.0
 10
463.2032229499586
 20
119.0791656196449
 30
0.0
 10
462.6509526118262
 20
119.0791656196449
 30
0.0
 10
462.6509526118262
 20
119.0791656196449
 30
0.0
 10
433.6509354953241
 20
119.0791656196449
 30
0.0
 10
433.6509354953241
 20
119.0791656196449
 30
0.0
 10
433.6509354953241
 20
119.0791656196449
 30
0.0
 10
433.6509354953241
 20
120.7291725704573
 30
0.0
 10
433.6509354953241
 20
120.7291725704573
 30
0.0
 10
433.6509354953241
 20
120.7291725704573
 30
0.0
 10
462.6509526118262
 20
120.7291725704573
 30
0.0
 10
462.6509526118262
 20
120.7291725704573
 30
0.0
 10
463.2032229499586
 20
120.7291725704573
 30
0.0
 10
463.6509561719603
 20
121.1768842606103
 30
0.0
 10
463.6509561719603
 20
121.7291545987439
 30
0.0
 10
463.6509561719603
 20
121.7291545987439
 30
0.0
 10
463.6509561719603
 20
122.3791579894215
 30
0.0
 10
463.6509561719603
 20
122.3791579894215
 30
0.0
 10
463.6509561719603
 20
122.3791579894215
 30
0.0
 10
463.6509561719603
 20
157.4291718831119
 30
0.0
 10
463.6509561719603
 20
157.4291718831119
 30
0.0
 10
463.6509561719603
 20
157.4291718831119
 30
0.0
 10
463.6509561719603
 20
158.0791537419453
 30
0.0
 10
463.6509561719603
 20
158.0791537419453
 30
0.0
 10
463.6509561719603
 20
158.6314456119238
 30
0.0
 10
463.2032229499586
 20
159.0791573020801
 30
0.0
 10
462.6509526118262
 20
159.0791573020801
 30
0.0
 10
462.6509526118262
 20
159.0791573020801
 30
0.0
 10
433.6509354953241
 20
159.0791573020801
 30
0.0
 10
433.6509354953241
 20
159.0791573020801
 30
0.0
 10
433.6509354953241
 20
159.0791573020801
 30
0.0
 10
433.6509354953241
 20
160.7291642528924
 30
0.0
 10
433.6509354953241
 20
160.7291642528924
 30
0.0
 10
433.6509354953241
 20
160.7291642528924
 30
0.0
 10
462.6509526118262
 20
160.7291642528924
 30
0.0
 10
462.6509526118262
 20
160.7291642528924
 30
0.0
 10
463.2032229499586
 20
160.7291642528924
 30
0.0
 10
463.6509561719603
 20
161.1768759430487
 30
0.0
 10
463.6509561719603
 20
161.7291678130265
 30
0.0
 10
463.6509561719603
 20
161.7291678130265
 30
0.0
 10
463.6509561719603
 20
162.379171203708
 30
0.0
 10
463.6509561719603
 20
162.379171203708
 30
0.0
 10
463.6509561719603
 20
162.379171203708
 30
0.0
 10
463.6509561719603
 20
191.9041562766218
 30
0.0
 10
463.6509561719603
 20
191.9041562766218
 30
0.0
 10
463.6509561719603
 20
196.3224481727586
 30
0.0
 10
460.0692195870268
 20
199.9041632258467
 30
0.0
 10
455.6509492227342
 20
199.9041632258467
 30
0.0
  0
SPLINE
  5
49
330
1F
100
AcDbEntity
  8
0
 62
   250
100
AcDbSpline
210
0.0
220
0.0
230
1.0
 70
    11
 71
     3
 72
    77
 73
    73
 74
     0
 42
0.0000000001
 43
0.0000000001
 12
1.0
 22
0.0
 32
0.0
 13
1.0
 23
0.0
 33
0.0
 40
0.0
 40
0.0
 40
0.0
 40
0.0
 40
1.0
 40
1.0
 40
1.0
 40
2.0
 40
2.0
 40
2.0
 40
3.0
 40
3.0
 40
3.0
 40
4.0
 40
4.0
 40
4.0
 40
5.0
 40
5.0
 40
5.0
 40
6.0
 40
6.0
 40
6.0
 40
7.0
 40
7.0
 40
7.0
 40
8.0
 40
8.0
 40
8.0
 40
9.0
 40
9.0
 40
9.0
 40
10.0
 40
10.0
 40
10.0
 40
11.0
 40
11.0
 40
11.0
 40
12.0
 40
12.0
 40
12.0
 40
13.0
 40
13.0
 40
13.0
 40
14.0
 40
14.0
 40
14.0
 40
15.0
 40
15.0
 40
15.0
 40
16.0
 40
16.0
 40
16.0
 40
17.0
 40
17.0
 40
17.0
 40
18.0
 40
18.0
 40
18.0
 40
19.0
 40
19.0
 40
19.0
 40
20.0
 40
20.0
 40
20.0
 40
21.0
 40
21.0
 40
21.0
 40
22.0
 40
22.0
 40
22.0
 40
23.0
 40
23.0
 40
23.0
 40
24.0
 40
24.0
 40
24.0
 40
24.0
 10
155.6509470089107
 20
79.90416664669063
 30
0.0
 10
155.6509470089107
 20
79.90416664669063
 30
0.0
 10
146.1259470112913
 20
79.90416664669063
 30
0.0
 10
146.1259470112913
 20
79.90416664669063
 30
0.0
 10
146.1259470112913
 20
79.90416664669063
 30
0.0
 10
145.4759651524586
 20
79.90416664669063
 30
0.0
 10
145.4759651524586
 20
79.90416664669063
 30
0.0
 10
144.9236732824798
 20
79.90416664669063
 30
0.0
 10
144.4759615923245
 20
79.45645495653434
 30
0.0
 10
144.4759615923245
 20
78.90418461840395
 30
0.0
 10
144.4759615923245
 20
78.90418461840395
 30
0.0
 10
144.4759615923245
 20
59.90418157139548
 30
0.0
 10
144.4759615923245
 20
59.90418157139548
 30
0.0
 10
144.4759615923245
 20
59.90418157139548
 30
0.0
 10
142.8259546415111
 20
59.90418157139548
 30
0.0
 10
142.8259546415111
 20
59.90418157139548
 30
0.0
 10
142.8259546415111
 20
59.90418157139548
 30
0.0
 10
142.8259546415111
 20
78.90418461840395
 30
0.0
 10
142.8259546415111
 20
78.90418461840395
 30
0.0
 10
142.8259546415111
 20
79.45645495653434
 30
0.0
 10
142.3782429513558
 20
79.90416664669063
 30
0.0
 10
141.8259510813767
 20
79.90416664669063
 30
0.0
 10
141.8259510813767
 20
79.90416664669063
 30
0.0
 10
141.1759476906972
 20
79.90416664669063
 30
0.0
 10
141.1759476906972
 20
79.90416664669063
 30
0.0
 10
141.1759476906972
 20
79.90416664669063
 30
0.0
 10
126.1259619359962
 20
79.90416664669063
 30
0.0
 10
126.1259619359962
 20
79.90416664669063
 30
0.0
 10
126.1259619359962
 20
79.90416664669063
 30
0.0
 10
125.4759585453166
 20
79.90416664669063
 30
0.0
 10
125.4759585453166
 20
79.90416664669063
 30
0.0
 10
124.9236666753375
 20
79.90416664669063
 30
0.0
 10
124.4759549851825
 20
79.45645495653434
 30
0.0
 10
124.4759549851825
 20
78.90418461840395
 30
0.0
 10
124.4759549851825
 20
78.90418461840395
 30
0.0
 10
124.4759549851825
 20
59.90418157139548
 30
0.0
 10
124.4759549851825
 20
59.90418157139548
 30
0.0
 10
124.4759549851825
 20
59.90418157139548
 30
0.0
 10
122.8259480343689
 20
59.90418157139548
 30
0.0
 10
122.8259480343689
 20
59.90418157139548
 30
0.0
 10
122.8259480343689
 20
59.90418157139548
 30
0.0
 10
122.8259480343689
 20
78.90418461840395
 30
0.0
 10
122.8259480343689
 20
78.90418461840395
 30
0.0
 10
122.8259480343689
 20
79.45645495653434
 30
0.0
 10
122.3782363442139
 20
79.90416664669063
 30
0.0
 10
121.8259660060816
 20
79.90416664669063
 30
0.0
 10
121.8259660060816
 20
79.90416664669063
 30
0.0
 10
121.1759626154021
 20
79.90416664669063
 30
0.0
 10
121.1759626154021
 20
79.90416664669063
 30
0.0
 10
121.1759626154021
 20
79.90416664669063
 30
0.0
 10
111.6509626177833
 20
79.90416664669063
 30
0.0
 10
111.6509626177833
 20
79.90416664669063
 30
0.0
 10
107.232670721644
 20
79.90416664669063
 30
0.0
 10
103.6509556685572
 20
76.32245159360257
 30
0.0
 10
103.6509556685572
 20
71.90418122931
 30
0.0
 10
103.6509556685572
 20
71.90418122931
 30
0.0
 10
103.6509556685572
 20
27.90417530633712
 30
0.0
 10
103.6509556685572
 20
27.90417530633712
 30
0.0
 10
103.6509556685572
 20
23.48590494204519
 30
0.0
 10
107.232670721644
 20
19.90416835711227
 30
0.0
 10
111.6509626177833
 20
19.90416835711227
 30
0.0
 10
111.6509626177833
 20
19.90416835711227
 30
0.0
 10
155.6509470089107
 20
19.90416835711227
 30
0.0
 10
155.6509470089107
 20
19.90416835711227
 30
0.0
 10
160.06923890505
 20
19.90416835711227
 30
0.0
 10
163.6509539581362
 20
23.48590494204519
 30
0.0
 10
163.6509539581362
 20
27.90417530633712
 30
0.0
 10
163.6509539581362
 20
27.90417530633712
 30
0.0
 10
163.6509539581362
 20
71.90418122931
 30
0.0
 10
163.6509539581362
 20
71.90418122931
 30
0.0
 10
163.6509539581362
 20
76.32245159360257
 30
0.0
 10
160.06923890505
 20
79.90416664669063
 30
0.0
 10
155.6509470089107
 20
79.90416664669063
 30
0.0
  0
SPLINE
  5
4A
330
1F
100
AcDbEntity
  8
0
 62
   250
100
AcDbSpline
210
0.0
220
0.0
230
1.0
 70
    11
 71
     3
 72
    77
 73
    73
 74
     0
 42
0.0000000001
 43
0.0000000001
 12
1.0
 22
0.0
 32
0.0
 13
1.0
 23
0.0
 33
0.0
 40
0.0
 40
0.0
 40
0.0
 40
0.0
 40
1.0
 40
1.0
 40
1.0
 40
2.0
 40
2.0
 40
2.0
 40
3.0
 40
3.0
 40
3.0
 40
4.0
 40
4.0
 40
4.0
 40
5.0
 40
5.0
 40
5.0
 40
6.0
 40
6.0
 40
6.0
 40
7.0
 40
7.0
 40
7.0
 40
8.0
 40
8.0
 40
8.0
 40
9.0
 40
9.0
 40
9.0
 40
10.0
 40
10.0
 40
10.0
 40
11.0
 40
11.0
 40
11.0
 40
12.0
 40
12.0
 40
12.0
 40
13.0
 40
13.0
 40
13.0
 40
14.0
 40
14.0
 40
14.0
 40
15.0
 40
15.0
 40
15.0
 40
16.0
 40
16.0
 40
16.0
 40
17.0
 40
17.0
 40
17.0
 40
18.0
 40
18.0
 40
18.0
 40
19.0
 40
19.0
 40
19.0
 40
20.0
 40
20.0
 40
20.0
 40
21.0
 40
21.0
 40
21.0
 40
22.0
 40
22.0
 40
22.0
 40
23.0
 40
23.0
 40
23.0
 40
24.0
 40
24.0
 40
24.0
 40
24.0
 10
215.650945298491
 20
79.90416664669063
 30
0.0
 10
215.650945298491
 20
79.90416664669063
 30
0.0
 10
206.1259453008709
 20
79.90416664669063
 30
0.0
 10
206.1259453008709
 20
79.90416664669063
 30
0.0
 10
206.1259453008709
 20
79.90416664669063
 30
0.0
 10
205.4759634420376
 20
79.90416664669063
 30
0.0
 10
205.4759634420376
 20
79.90416664669063
 30
0.0
 10
204.9236715720591
 20
79.90416664669063
 30
0.0
 10
204.4759598819041
 20
79.45645495653434
 30
0.0
 10
204.4759598819041
 20
78.90418461840395
 30
0.0
 10
204.4759598819041
 20
78.90418461840395
 30
0.0
 10
204.4759598819041
 20
59.90418157139548
 30
0.0
 10
204.4759598819041
 20
59.90418157139548
 30
0.0
 10
204.4759598819041
 20
59.90418157139548
 30
0.0
 10
202.8259529310905
 20
59.90418157139548
 30
0.0
 10
202.8259529310905
 20
59.90418157139548
 30
0.0
 10
202.8259529310905
 20
59.90418157139548
 30
0.0
 10
202.8259529310905
 20
78.90418461840395
 30
0.0
 10
202.8259529310905
 20
78.90418461840395
 30
0.0
 10
202.8259529310905
 20
79.45645495653434
 30
0.0
 10
202.3782412409355
 20
79.90416664669063
 30
0.0
 10
201.8259493709564
 20
79.90416664669063
 30
0.0
 10
201.8259493709564
 20
79.90416664669063
 30
0.0
 10
201.1759459802769
 20
79.90416664669063
 30
0.0
 10
201.1759459802769
 20
79.90416664669063
 30
0.0
 10
201.1759459802769
 20
79.90416664669063
 30
0.0
 10
186.1259602255758
 20
79.90416664669063
 30
0.0
 10
186.1259602255758
 20
79.90416664669063
 30
0.0
 10
186.1259602255758
 20
79.90416664669063
 30
0.0
 10
185.4759568348963
 20
79.90416664669063
 30
0.0
 10
185.4759568348963
 20
79.90416664669063
 30
0.0
 10
184.9236649649172
 20
79.90416664669063
 30
0.0
 10
184.4759532747615
 20
79.45645495653434
 30
0.0
 10
184.4759532747615
 20
78.90418461840395
 30
0.0
 10
184.4759532747615
 20
78.90418461840395
 30
0.0
 10
184.4759532747615
 20
59.90418157139548
 30
0.0
 10
184.4759532747615
 20
59.90418157139548
 30
0.0
 10
184.4759532747615
 20
59.90418157139548
 30
0.0
 10
182.8259463239486
 20
59.90418157139548
 30
0.0
 10
182.8259463239486
 20
59.90418157139548
 30
0.0
 10
182.8259463239486
 20
59.90418157139548
 30
0.0
 10
182.8259463239486
 20
78.90418461840395
 30
0.0
 10
182.8259463239486
 20
78.90418461840395
 30
0.0
 10
182.8259463239486
 20
79.45645495653434
 30
0.0
 10
182.3782346337929
 20
79.90416664669063
 30
0.0
 10
181.8259642956612
 20
79.90416664669063
 30
0.0
 10
181.8259642956612
 20
79.90416664669063
 30
0.0
 10
181.1759609049817
 20
79.90416664669063
 30
0.0
 10
181.1759609049817
 20
79.90416664669063
 30
0.0
 10
181.1759609049817
 20
79.90416664669063
 30
0.0
 10
171.650960907363
 20
79.90416664669063
 30
0.0
 10
171.650960907363
 20
79.90416664669063
 30
0.0
 10
167.2326690112236
 20
79.90416664669063
 30
0.0
 10
163.6509539581362
 20
76.32245159360257
 30
0.0
 10
163.6509539581362
 20
71.90418122931
 30
0.0
 10
163.6509539581362
 20
71.90418122931
 30
0.0
 10
163.6509539581362
 20
27.90417530633712
 30
0.0
 10
163.6509539581362
 20
27.90417530633712
 30
0.0
 10
163.6509539581362
 20
23.48590494204519
 30
0.0
 10
167.2326690112236
 20
19.90416835711227
 30
0.0
 10
171.650960907363
 20
19.90416835711227
 30
0.0
 10
171.650960907363
 20
19.90416835711227
 30
0.0
 10
215.650945298491
 20
19.90416835711227
 30
0.0
 10
215.650945298491
 20
19.90416835711227
 30
0.0
 10
220.0692371946303
 20
19.90416835711227
 30
0.0
 10
223.6509522477165
 20
23.48590494204519
 30
0.0
 10
223.6509522477165
 20
27.90417530633712
 30
0.0
 10
223.6509522477165
 20
27.90417530633712
 30
0.0
 10
223.6509522477165
 20
71.90418122931
 30
0.0
 10
223.6509522477165
 20
71.90418122931
 30
0.0
 10
223.6509522477165
 20
76.32245159360257
 30
0.0
 10
220.0692371946303
 20
79.90416664669063
 30
0.0
 10
215.650945298491
 20
79.90416664669063
 30
0.0
  0
SPLINE
  5
4B
330
1F
100
AcDbEntity
  8
0
 62
   250
100
AcDbSpline
210
0.0
220
0.0
230
1.0
 70
    11
 71
     3
 72
    77
 73
    73
 74
     0
 42
0.0000000001
 43
0.0000000001
 12
1.0
 22
0.0
 32
0.0
 13
1.0
 23
0.0
 33
0.0
 40
0.0
 40
0.0
 40
0.0
 40
0.0
 40
1.0
 40
1.0
 40
1.0
 40
2.0
 40
2.0
 40
2.0
 40
3.0
 40
3.0
 40
3.0
 40
4.0
 40
4.0
 40
4.0
 40
5.0
 40
5.0
 40
5.0
 40
6.0
 40
6.0
 40
6.0
 40
7.0
 40
7.0
 40
7.0
 40
8.0
 40
8.0
 40
8.0
 40
9.0
 40
9.0
 40
9.0
 40
10.0
 40
10.0
 40
10.0
 40
11.0
 40
11.0
 40
11.0
 40
12.0
 40
12.0
 40
12.0
 40
13.0
 40
13.0
 40
13.0
 40
14.0
 40
14.0
 40
14.0
 40
15.0
 40
15.0
 40
15.0
 40
16.0
 40
16.0
 40
16.0
 40
17.0
 40
17.0
 40
17.0
 40
18.0
 40
18.0
 40
18.0
 40
19.0
 40
19.0
 40
19.0
 40
20.0
 40
20.0
 40
20.0
 40
21.0
 40
21.0
 40
21.0
 40
22.0
 40
22.0
 40
22.0
 40
23.0
 40
23.0
 40
23.0
 40
24.0
 40
24.0
 40
24.0
 40
24.0
 10
275.6509435880712
 20
79.90416664669063
 30
0.0
 10
275.6509435880712
 20
79.90416664669063
 30
0.0
 10
266.1259435904512
 20
79.90416664669063
 30
0.0
 10
266.1259435904512
 20
79.90416664669063
 30
0.0
 10
266.1259435904512
 20
79.90416664669063
 30
0.0
 10
265.4759617316191
 20
79.90416664669063
 30
0.0
 10
265.4759617316191
 20
79.90416664669063
 30
0.0
 10
264.9236698616394
 20
79.90416664669063
 30
0.0
 10
264.4759581714844
 20
79.45645495653434
 30
0.0
 10
264.4759581714844
 20
78.90418461840395
 30
0.0
 10
264.4759581714844
 20
78.90418461840395
 30
0.0
 10
264.4759581714844
 20
59.90418157139548
 30
0.0
 10
264.4759581714844
 20
59.90418157139548
 30
0.0
 10
264.4759581714844
 20
59.90418157139548
 30
0.0
 10
262.8259512206707
 20
59.90418157139548
 30
0.0
 10
262.8259512206707
 20
59.90418157139548
 30
0.0
 10
262.8259512206707
 20
59.90418157139548
 30
0.0
 10
262.8259512206707
 20
78.90418461840395
 30
0.0
 10
262.8259512206707
 20
78.90418461840395
 30
0.0
 10
262.8259512206707
 20
79.45645495653434
 30
0.0
 10
262.3782395305158
 20
79.90416664669063
 30
0.0
 10
261.8259476605367
 20
79.90416664669063
 30
0.0
 10
261.8259476605367
 20
79.90416664669063
 30
0.0
 10
261.1759442698571
 20
79.90416664669063
 30
0.0
 10
261.1759442698571
 20
79.90416664669063
 30
0.0
 10
261.1759442698571
 20
79.90416664669063
 30
0.0
 10
246.1259585151561
 20
79.90416664669063
 30
0.0
 10
246.1259585151561
 20
79.90416664669063
 30
0.0
 10
246.1259585151561
 20
79.90416664669063
 30
0.0
 10
245.4759551244766
 20
79.90416664669063
 30
0.0
 10
245.4759551244766
 20
79.90416664669063
 30
0.0
 10
244.9236632544975
 20
79.90416664669063
 30
0.0
 10
244.4759515643418
 20
79.45645495653434
 30
0.0
 10
244.4759515643418
 20
78.90418461840395
 30
0.0
 10
244.4759515643418
 20
78.90418461840395
 30
0.0
 10
244.4759515643418
 20
59.90418157139548
 30
0.0
 10
244.4759515643418
 20
59.90418157139548
 30
0.0
 10
244.4759515643418
 20
59.90418157139548
 30
0.0
 10
242.8259446135288
 20
59.90418157139548
 30
0.0
 10
242.8259446135288
 20
59.90418157139548
 30
0.0
 10
242.8259446135288
 20
59.90418157139548
 30
0.0
 10
242.8259446135288
 20
78.90418461840395
 30
0.0
 10
242.8259446135288
 20
78.90418461840395
 30
0.0
 10
242.8259446135288
 20
79.45645495653434
 30
0.0
 10
242.3782329233732
 20
79.90416664669063
 30
0.0
 10
241.8259625852415
 20
79.90416664669063
 30
0.0
 10
241.8259625852415
 20
79.90416664669063
 30
0.0
 10
241.175959194562
 20
79.90416664669063
 30
0.0
 10
241.175959194562
 20
79.90416664669063
 30
0.0
 10
241.175959194562
 20
79.90416664669063
 30
0.0
 10
231.6509591969432
 20
79.90416664669063
 30
0.0
 10
231.6509591969432
 20
79.90416664669063
 30
0.0
 10
227.2326673008039
 20
79.90416664669063
 30
0.0
 10
223.6509522477165
 20
76.32245159360257
 30
0.0
 10
223.6509522477165
 20
71.90418122931
 30
0.0
 10
223.6509522477165
 20
71.90418122931
 30
0.0
 10
223.6509522477165
 20
27.90417530633712
 30
0.0
 10
223.6509522477165
 20
27.90417530633712
 30
0.0
 10
223.6509522477165
 20
23.48590494204519
 30
0.0
 10
227.2326673008039
 20
19.90416835711227
 30
0.0
 10
231.6509591969432
 20
19.90416835711227
 30
0.0
 10
231.6509591969432
 20
19.90416835711227
 30
0.0
 10
275.6509435880712
 20
19.90416835711227
 30
0.0
 10
275.6509435880712
 20
19.90416835711227
 30
0.0
 10
280.06923548421
 20
19.90416835711227
 30
0.0
 10
283.6509505372974
 20
23.48590494204519
 30
0.0
 10
283.6509505372974
 20
27.90417530633712
 30
0.0
 10
283.6509505372974
 20
27.90417530633712
 30
0.0
 10
283.6509505372974
 20
71.90418122931
 30
0.0
 10
283.6509505372974
 20
71.90418122931
 30
0.0
 10
283.6509505372974
 20
76.32245159360257
 30
0.0
 10
280.06923548421
 20
79.90416664669063
 30
0.0
 10
275.6509435880712
 20
79.90416664669063
 30
0.0
  0
SPLINE
  5
4C
330
1F
100
AcDbEntity
  8
0
 62
   250
100
AcDbSpline
210
0.0
220
0.0
230
1.0
 70
    11
 71
     3
 72
    77
 73
    73
 74
     0
 42
0.0000000001
 43
0.0000000001
 12
1.0
 22
0.0
 32
0.0
 13
1.0
 23
0.0
 33
0.0
 40
0.0
 40
0.0
 40
0.0
 40
0.0
 40
1.0
 40
1.0
 40
1.0
 40
2.0
 40
2.0
 40
2.0
 40
3.0
 40
3.0
 40
3.0
 40
4.0
 40
4.0
 40
4.0
 40
5.0
 40
5.0
 40
5.0
 40
6.0
 40
6.0
 40
6.0
 40
7.0
 40
7.0
 40
7.0
 40
8.0
 40
8.0
 40
8.0
 40
9.0
 40
9.0
 40
9.0
 40
10.0
 40
10.0
 40
10.0
 40
11.0
 40
11.0
 40
11.0
 40
12.0
 40
12.0
 40
12.0
 40
13.0
 40
13.0
 40
13.0
 40
14.0
 40
14.0
 40
14.0
 40
15.0
 40
15.0
 40
15.0
 40
16.0
 40
16.0
 40
16.0
 40
17.0
 40
17.0
 40
17.0
 40
18.0
 40
18.0
 40
18.0
 40
19.0
 40
19.0
 40
19.0
 40
20.0
 40
20.0
 40
20.0
 40
21.0
 40
21.0
 40
21.0
 40
22.0
 40
22.0
 40
22.0
 40
23.0
 40
23.0
 40
23.0
 40
24.0
 40
24.0
 40
24.0
 40
24.0
 10
335.6509418776515
 20
79.90416664669063
 30
0.0
 10
335.6509418776515
 20
79.90416664669063
 30
0.0
 10
326.1259418800308
 20
79.90416664669063
 30
0.0
 10
326.1259418800308
 20
79.90416664669063
 30
0.0
 10
326.1259418800308
 20
79.90416664669063
 30
0.0
 10
325.4759600211988
 20
79.90416664669063
 30
0.0
 10
325.4759600211988
 20
79.90416664669063
 30
0.0
 10
324.9236681512197
 20
79.90416664669063
 30
0.0
 10
324.4759564610646
 20
79.45645495653434
 30
0.0
 10
324.4759564610646
 20
78.90418461840395
 30
0.0
 10
324.4759564610646
 20
78.90418461840395
 30
0.0
 10
324.4759564610646
 20
59.90418157139548
 30
0.0
 10
324.4759564610646
 20
59.90418157139548
 30
0.0
 10
324.4759564610646
 20
59.90418157139548
 30
0.0
 10
322.825949510251
 20
59.90418157139548
 30
0.0
 10
322.825949510251
 20
59.90418157139548
 30
0.0
 10
322.825949510251
 20
59.90418157139548
 30
0.0
 10
322.825949510251
 20
78.90418461840395
 30
0.0
 10
322.825949510251
 20
78.90418461840395
 30
0.0
 10
322.825949510251
 20
79.45645495653434
 30
0.0
 10
322.378237820096
 20
79.90416664669063
 30
0.0
 10
321.8259459501162
 20
79.90416664669063
 30
0.0
 10
321.8259459501162
 20
79.90416664669063
 30
0.0
 10
321.1759425594367
 20
79.90416664669063
 30
0.0
 10
321.1759425594367
 20
79.90416664669063
 30
0.0
 10
321.1759425594367
 20
79.90416664669063
 30
0.0
 10
306.1259568047357
 20
79.90416664669063
 30
0.0
 10
306.1259568047357
 20
79.90416664669063
 30
0.0
 10
306.1259568047357
 20
79.90416664669063
 30
0.0
 10
305.4759534140562
 20
79.90416664669063
 30
0.0
 10
305.4759534140562
 20
79.90416664669063
 30
0.0
 10
304.9236615440777
 20
79.90416664669063
 30
0.0
 10
304.4759498539227
 20
79.45645495653434
 30
0.0
 10
304.4759498539227
 20
78.90418461840395
 30
0.0
 10
304.4759498539227
 20
78.90418461840395
 30
0.0
 10
304.4759498539227
 20
59.90418157139548
 30
0.0
 10
304.4759498539227
 20
59.90418157139548
 30
0.0
 10
304.4759498539227
 20
59.90418157139548
 30
0.0
 10
302.8259429031091
 20
59.90418157139548
 30
0.0
 10
302.8259429031091
 20
59.90418157139548
 30
0.0
 10
302.8259429031091
 20
59.90418157139548
 30
0.0
 10
302.8259429031091
 20
78.90418461840395
 30
0.0
 10
302.8259429031091
 20
78.90418461840395
 30
0.0
 10
302.8259429031091
 20
79.45645495653434
 30
0.0
 10
302.3782312129541
 20
79.90416664669063
 30
0.0
 10
301.8259608748211
 20
79.90416664669063
 30
0.0
 10
301.8259608748211
 20
79.90416664669063
 30
0.0
 10
301.1759574841416
 20
79.90416664669063
 30
0.0
 10
301.1759574841416
 20
79.90416664669063
 30
0.0
 10
301.1759574841416
 20
79.90416664669063
 30
0.0
 10
291.6509574865229
 20
79.90416664669063
 30
0.0
 10
291.6509574865229
 20
79.90416664669063
 30
0.0
 10
287.2326655903842
 20
79.90416664669063
 30
0.0
 10
283.6509505372974
 20
76.32245159360257
 30
0.0
 10
283.6509505372974
 20
71.90418122931
 30
0.0
 10
283.6509505372974
 20
71.90418122931
 30
0.0
 10
283.6509505372974
 20
27.90417530633712
 30
0.0
 10
283.6509505372974
 20
27.90417530633712
 30
0.0
 10
283.6509505372974
 20
23.48590494204519
 30
0.0
 10
287.2326655903842
 20
19.90416835711227
 30
0.0
 10
291.6509574865229
 20
19.90416835711227
 30
0.0
 10
291.6509574865229
 20
19.90416835711227
 30
0.0
 10
335.6509418776515
 20
19.90416835711227
 30
0.0
 10
335.6509418776515
 20
19.90416835711227
 30
0.0
 10
340.0692337737916
 20
19.90416835711227
 30
0.0
 10
343.6509488268777
 20
23.48590494204519
 30
0.0
 10
343.6509488268777
 20
27.90417530633712
 30
0.0
 10
343.6509488268777
 20
27.90417530633712
 30
0.0
 10
343.6509488268777
 20
71.90418122931
 30
0.0
 10
343.6509488268777
 20
71.90418122931
 30
0.0
 10
343.6509488268777
 20
76.32245159360257
 30
0.0
 10
340.0692337737916
 20
79.90416664669063
 30
0.0
 10
335.6509418776515
 20
79.90416664669063
 30
0.0
  0
SPLINE
  5
4D
330
1F
100
AcDbEntity
  8
0
 62
   250
100
AcDbSpline
210
0.0
220
0.0
230
1.0
 70
    11
 71
     3
 72
    77
 73
    73
 74
     0
 42
0.0000000001
 43
0.0000000001
 12
1.0
 22
0.0
 32
0.0
 13
1.0
 23
0.0
 33
0.0
 40
0.0
 40
0.0
 40
0.0
 40
0.0
 40
1.0
 40
1.0
 40
1.0
 40
2.0
 40
2.0
 40
2.0
 40
3.0
 40
3.0
 40
3.0
 40
4.0
 40
4.0
 40
4.0
 40
5.0
 40
5.0
 40
5.0
 40
6.0
 40
6.0
 40
6.0
 40
7.0
 40
7.0
 40
7.0
 40
8.0
 40
8.0
 40
8.0
 40
9.0
 40
9.0
 40
9.0
 40
10.0
 40
10.0
 40
10.0
 40
11.0
 40
11.0
 40
11.0
 40
12.0
 40
12.0
 40
12.0
 40
13.0
 40
13.0
 40
13.0
 40
14.0
 40
14.0
 40
14.0
 40
15.0
 40
15.0
 40
15.0
 40
16.0
 40
16.0
 40
16.0
 40
17.0
 40
17.0
 40
17.0
 40
18.0
 40
18.0
 40
18.0
 40
19.0
 40
19.0
 40
19.0
 40
20.0
 40
20.0
 40
20.0
 40
21.0
 40
21.0
 40
21.0
 40
22.0
 40
22.0
 40
22.0
 40
23.0
 40
23.0
 40
23.0
 40
24.0
 40
24.0
 40
24.0
 40
24.0
 10
395.6509401672318
 20
79.90416664669063
 30
0.0
 10
395.6509401672318
 20
79.90416664669063
 30
0.0
 10
386.1259401696118
 20
79.90416664669063
 30
0.0
 10
386.1259401696118
 20
79.90416664669063
 30
0.0
 10
386.1259401696118
 20
79.90416664669063
 30
0.0
 10
385.475958310779
 20
79.90416664669063
 30
0.0
 10
385.475958310779
 20
79.90416664669063
 30
0.0
 10
384.9236664407999
 20
79.90416664669063
 30
0.0
 10
384.4759547506449
 20
79.45645495653434
 30
0.0
 10
384.4759547506449
 20
78.90418461840395
 30
0.0
 10
384.4759547506449
 20
78.90418461840395
 30
0.0
 10
384.4759547506449
 20
59.90418157139548
 30
0.0
 10
384.4759547506449
 20
59.90418157139548
 30
0.0
 10
384.4759547506449
 20
59.90418157139548
 30
0.0
 10
382.8259477998313
 20
59.90418157139548
 30
0.0
 10
382.8259477998313
 20
59.90418157139548
 30
0.0
 10
382.8259477998313
 20
59.90418157139548
 30
0.0
 10
382.8259477998313
 20
78.90418461840395
 30
0.0
 10
382.8259477998313
 20
78.90418461840395
 30
0.0
 10
382.8259477998313
 20
79.45645495653434
 30
0.0
 10
382.3782361096763
 20
79.90416664669063
 30
0.0
 10
381.8259442396972
 20
79.90416664669063
 30
0.0
 10
381.8259442396972
 20
79.90416664669063
 30
0.0
 10
381.1759408490177
 20
79.90416664669063
 30
0.0
 10
381.1759408490177
 20
79.90416664669063
 30
0.0
 10
381.1759408490177
 20
79.90416664669063
 30
0.0
 10
366.1259550943166
 20
79.90416664669063
 30
0.0
 10
366.1259550943166
 20
79.90416664669063
 30
0.0
 10
366.1259550943166
 20
79.90416664669063
 30
0.0
 10
365.4759517036371
 20
79.90416664669063
 30
0.0
 10
365.4759517036371
 20
79.90416664669063
 30
0.0
 10
364.923659833658
 20
79.90416664669063
 30
0.0
 10
364.475948143503
 20
79.45645495653434
 30
0.0
 10
364.475948143503
 20
78.90418461840395
 30
0.0
 10
364.475948143503
 20
78.90418461840395
 30
0.0
 10
364.475948143503
 20
59.90418157139548
 30
0.0
 10
364.475948143503
 20
59.90418157139548
 30
0.0
 10
364.475948143503
 20
59.90418157139548
 30
0.0
 10
362.8259411926894
 20
59.90418157139548
 30
0.0
 10
362.8259411926894
 20
59.90418157139548
 30
0.0
 10
362.8259411926894
 20
59.90418157139548
 30
0.0
 10
362.8259411926894
 20
78.90418461840395
 30
0.0
 10
362.8259411926894
 20
78.90418461840395
 30
0.0
 10
362.8259411926894
 20
79.45645495653434
 30
0.0
 10
362.3782295025344
 20
79.90416664669063
 30
0.0
 10
361.825959164402
 20
79.90416664669063
 30
0.0
 10
361.825959164402
 20
79.90416664669063
 30
0.0
 10
361.1759557737225
 20
79.90416664669063
 30
0.0
 10
361.1759557737225
 20
79.90416664669063
 30
0.0
 10
361.1759557737225
 20
79.90416664669063
 30
0.0
 10
351.6509557761044
 20
79.90416664669063
 30
0.0
 10
351.6509557761044
 20
79.90416664669063
 30
0.0
 10
347.2326638799644
 20
79.90416664669063
 30
0.0
 10
343.6509488268777
 20
76.32245159360257
 30
0.0
 10
343.6509488268777
 20
71.90418122931
 30
0.0
 10
343.6509488268777
 20
71.90418122931
 30
0.0
 10
343.6509488268777
 20
27.90417530633712
 30
0.0
 10
343.6509488268777
 20
27.90417530633712
 30
0.0
 10
343.6509488268777
 20
23.48590494204519
 30
0.0
 10
347.2326638799644
 20
19.90416835711227
 30
0.0
 10
351.6509557761044
 20
19.90416835711227
 30
0.0
 10
351.6509557761044
 20
19.90416835711227
 30
0.0
 10
395.6509401672318
 20
19.90416835711227
 30
0.0
 10
395.6509401672318
 20
19.90416835711227
 30
0.0
 10
400.0692320633711
 20
19.90416835711227
 30
0.0
 10
403.6509471164579
 20
23.48590494204519
 30
0.0
 10
403.6509471164579
 20
27.90417530633712
 30
0.0
 10
403.6509471164579
 20
27.90417530633712
 30
0.0
 10
403.6509471164579
 20
71.90418122931
 30
0.0
 10
403.6509471164579
 20
71.90418122931
 30
0.0
 10
403.6509471164579
 20
76.32245159360257
 30
0.0
 10
400.0692320633711
 20
79.90416664669063
 30
0.0
 10
395.6509401672318
 20
79.90416664669063
 30
0.0
  0
SPLINE
  5
4E
330
1F
100
AcDbEntity
  8
0
 62
   250
100
AcDbSpline
210
0.0
220
0.0
230
1.0
 70
    11
 71
     3
 72
    77
 73
    73
 74
     0
 42
0.0000000001
 43
0.0000000001
 12
1.0
 22
0.0
 32
0.0
 13
1.0
 23
0.0
 33
0.0
 40
0.0
 40
0.0
 40
0.0
 40
0.0
 40
1.0
 40
1.0
 40
1.0
 40
2.0
 40
2.0
 40
2.0
 40
3.0
 40
3.0
 40
3.0
 40
4.0
 40
4.0
 40
4.0
 40
5.0
 40
5.0
 40
5.0
 40
6.0
 40
6.0
 40
6.0
 40
7.0
 40
7.0
 40
7.0
 40
8.0
 40
8.0
 40
8.0
 40
9.0
 40
9.0
 40
9.0
 40
10.0
 40
10.0
 40
10.0
 40
11.0
 40
11.0
 40
11.0
 40
12.0
 40
12.0
 40
12.0
 40
13.0
 40
13.0
 40
13.0
 40
14.0
 40
14.0
 40
14.0
 40
15.0
 40
15.0
 40
15.0
 40
16.0
 40
16.0
 40
16.0
 40
17.0
 40
17.0
 40
17.0
 40
18.0
 40
18.0
 40
18.0
 40
19.0
 40
19.0
 40
19.0
 40
20.0
 40
20.0
 40
20.0
 40
21.0
 40
21.0
 40
21.0
 40
22.0
 40
22.0
 40
22.0
 40
23.0
 40
23.0
 40
23.0
 40
24.0
 40
24.0
 40
24.0
 40
24.0
 10
455.6509384568121
 20
79.90416664669063
 30
0.0
 10
455.6509384568121
 20
79.90416664669063
 30
0.0
 10
446.1259384591921
 20
79.90416664669063
 30
0.0
 10
446.1259384591921
 20
79.90416664669063
 30
0.0
 10
446.1259384591921
 20
79.90416664669063
 30
0.0
 10
445.4759566003593
 20
79.90416664669063
 30
0.0
 10
445.4759566003593
 20
79.90416664669063
 30
0.0
 10
444.9236647303802
 20
79.90416664669063
 30
0.0
 10
444.4759530402252
 20
79.45645495653434
 30
0.0
 10
444.4759530402252
 20
78.90418461840395
 30
0.0
 10
444.4759530402252
 20
78.90418461840395
 30
0.0
 10
444.4759530402252
 20
59.90418157139548
 30
0.0
 10
444.4759530402252
 20
59.90418157139548
 30
0.0
 10
444.4759530402252
 20
59.90418157139548
 30
0.0
 10
442.8259460894116
 20
59.90418157139548
 30
0.0
 10
442.8259460894116
 20
59.90418157139548
 30
0.0
 10
442.8259460894116
 20
59.90418157139548
 30
0.0
 10
442.8259460894116
 20
78.90418461840395
 30
0.0
 10
442.8259460894116
 20
78.90418461840395
 30
0.0
 10
442.8259460894116
 20
79.45645495653434
 30
0.0
 10
442.3782343992566
 20
79.90416664669063
 30
0.0
 10
441.8259425292775
 20
79.90416664669063
 30
0.0
 10
441.8259425292775
 20
79.90416664669063
 30
0.0
 10
441.175939138598
 20
79.90416664669063
 30
0.0
 10
441.175939138598
 20
79.90416664669063
 30
0.0
 10
441.175939138598
 20
79.90416664669063
 30
0.0
 10
426.1259533838969
 20
79.90416664669063
 30
0.0
 10
426.1259533838969
 20
79.90416664669063
 30
0.0
 10
426.1259533838969
 20
79.90416664669063
 30
0.0
 10
425.4759499932174
 20
79.90416664669063
 30
0.0
 10
425.4759499932174
 20
79.90416664669063
 30
0.0
 10
424.9236581232383
 20
79.90416664669063
 30
0.0
 10
424.4759464330833
 20
79.45645495653434
 30
0.0
 10
424.4759464330833
 20
78.90418461840395
 30
0.0
 10
424.4759464330833
 20
78.90418461840395
 30
0.0
 10
424.4759464330833
 20
59.90418157139548
 30
0.0
 10
424.4759464330833
 20
59.90418157139548
 30
0.0
 10
424.4759464330833
 20
59.90418157139548
 30
0.0
 10
422.8259394822697
 20
59.90418157139548
 30
0.0
 10
422.8259394822697
 20
59.90418157139548
 30
0.0
 10
422.8259394822697
 20
59.90418157139548
 30
0.0
 10
422.8259394822697
 20
78.90418461840395
 30
0.0
 10
422.8259394822697
 20
78.90418461840395
 30
0.0
 10
422.8259394822697
 20
79.45645495653434
 30
0.0
 10
422.3782277921147
 20
79.90416664669063
 30
0.0
 10
421.8259574539823
 20
79.90416664669063
 30
0.0
 10
421.8259574539823
 20
79.90416664669063
 30
0.0
 10
421.1759540633028
 20
79.90416664669063
 30
0.0
 10
421.1759540633028
 20
79.90416664669063
 30
0.0
 10
421.1759540633028
 20
79.90416664669063
 30
0.0
 10
411.6509540656841
 20
79.90416664669063
 30
0.0
 10
411.6509540656841
 20
79.90416664669063
 30
0.0
 10
407.2326621695447
 20
79.90416664669063
 30
0.0
 10
403.6509471164579
 20
76.32245159360257
 30
0.0
 10
403.6509471164579
 20
71.90418122931
 30
0.0
 10
403.6509471164579
 20
71.90418122931
 30
0.0
 10
403.6509471164579
 20
27.90417530633712
 30
0.0
 10
403.6509471164579
 20
27.90417530633712
 30
0.0
 10
403.6509471164579
 20
23.48590494204519
 30
0.0
 10
407.2326621695447
 20
19.90416835711227
 30
0.0
 10
411.6509540656841
 20
19.90416835711227
 30
0.0
 10
411.6509540656841
 20
19.90416835711227
 30
0.0
 10
455.6509384568121
 20
19.90416835711227
 30
0.0
 10
455.6509384568121
 20
19.90416835711227
 30
0.0
 10
460.0692303529514
 20
19.90416835711227
 30
0.0
 10
463.6509454060382
 20
23.48590494204519
 30
0.0
 10
463.6509454060382
 20
27.90417530633712
 30
0.0
 10
463.6509454060382
 20
27.90417530633712
 30
0.0
 10
463.6509454060382
 20
71.90418122931
 30
0.0
 10
463.6509454060382
 20
71.90418122931
 30
0.0
 10
463.6509454060382
 20
76.32245159360257
 30
0.0
 10
460.0692303529514
 20
79.90416664669063
 30
0.0
 10
455.6509384568121
 20
79.90416664669063
 30
0.0
  0
SPLINE
  5
4F
330
1F
100
AcDbEntity
  8
0
 62
   250
100
AcDbSpline
210
0.0
220
0.0
230
1.0
 70
    11
 71
     3
 72
   221
 73
   217
 74
     0
 42
0.0000000001
 43
0.0000000001
 12
1.0
 22
0.0
 32
0.0
 13
1.0
 23
0.0
 33
0.0
 40
0.0
 40
0.0
 40
0.0
 40
0.0
 40
1.0
 40
1.0
 40
1.0
 40
2.0
 40
2.0
 40
2.0
 40
3.0
 40
3.0
 40
3.0
 40
4.0
 40
4.0
 40
4.0
 40
5.0
 40
5.0
 40
5.0
 40
6.0
 40
6.0
 40
6.0
 40
7.0
 40
7.0
 40
7.0
 40
8.0
 40
8.0
 40
8.0
 40
9.0
 40
9.0
 40
9.0
 40
10.0
 40
10.0
 40
10.0
 40
11.0
 40
11.0
 40
11.0
 40
12.0
 40
12.0
 40
12.0
 40
13.0
 40
13.0
 40
13.0
 40
14.0
 40
14.0
 40
14.0
 40
15.0
 40
15.0
 40
15.0
 40
16.0
 40
16.0
 40
16.0
 40
17.0
 40
17.0
 40
17.0
 40
18.0
 40
18.0
 40
18.0
 40
19.0
 40
19.0
 40
19.0
 40
20.0
 40
20.0
 40
20.0
 40
21.0
 40
21.0
 40
21.0
 40
22.0
 40
22.0
 40
22.0
 40
23.0
 40
23.0
 40
23.0
 40
24.0
 40
24.0
 40
24.0
 40
25.0
 40
25.0
 40
25.0
 40
26.0
 40
26.0
 40
26.0
 40
27.0
 40
27.0
 40
27.0
 40
28.0
 40
28.0
 40
28.0
 40
29.0
 40
29.0
 40
29.0
 40
30.0
 40
30.0
 40
30.0
 40
31.0
 40
31.0
 40
31.0
 40
32.0
 40
32.0
 40
32.0
 40
33.0
 40
33.0
 40
33.0
 40
34.0
 40
34.0
 40
34.0
 40
35.0
 40
35.0
 40
35.0
 40
36.0
 40
36.0
 40
36.0
 40
37.0
 40
37.0
 40
37.0
 40
38.0
 40
38.0
 40
38.0
 40
39.0
 40
39.0
 40
39.0
 40
40.0
 40
40.0
 40
40.0
 40
41.0
 40
41.0
 40
41.0
 40
42.0
 40
42.0
 40
42.0
 40
43.0
 40
43.0
 40
43.0
 40
44.0
 40
44.0
 40
44.0
 40
45.0
 40
45.0
 40
45.0
 40
46.0
 40
46.0
 40
46.0
 40
47.0
 40
47.0
 40
47.0
 40
48.0
 40
48.0
 40
48.0
 40
49.0
 40
49.0
 40
49.0
 40
50.0
 40
50.0
 40
50.0
 40
51.0
 40
51.0
 40
51.0
 40
52.0
 40
52.0
 40
52.0
 40
53.0
 40
53.0
 40
53.0
 40
54.0
 40
54.0
 40
54.0
 40
55.0
 40
55.0
 40
55.0
 40
56.0
 40
56.0
 40
56.0
 40
57.0
 40
57.0
 40
57.0
 40
58.0
 40
58.0
 40
58.0
 40
59.0
 40
59.0
 40
59.0
 40
60.0
 40
60.0
 40
60.0
 40
61.0
 40
61.0
 40
61.0
 40
62.0
 40
62.0
 40
62.0
 40
63.0
 40
63.0
 40
63.0
 40
64.0
 40
64.0
 40
64.0
 40
65.0
 40
65.0
 40
65.0
 40
66.0
 40
66.0
 40
66.0
 40
67.0
 40
67.0
 40
67.0
 40
68.0
 40
68.0
 40
68.0
 40
69.0
 40
69.0
 40
69.0
 40
70.0
 40
70.0
 40
70.0
 40
71.0
 40
71.0
 40
71.0
 40
72.0
 40
72.0
 40
72.0
 40
72.0
 10
215.6509560644131
 20
19.90416835711227
 30
0.0
 10
215.6509560644131
 20
19.90416835711227
 30
0.0
 10
186.1259494596524
 20
19.90416835711227
 30
0.0
 10
186.1259494596524
 20
19.90416835711227
 30
0.0
 10
186.1259494596524
 20
19.90416835711227
 30
0.0
 10
185.4759460689729
 20
19.90416835711227
 30
0.0
 10
185.4759460689729
 20
19.90416835711227
 30
0.0
 10
184.9236757308406
 20
19.90416835711227
 30
0.0
 10
184.4759425088388
 20
19.45645666695599
 30
0.0
 10
184.4759425088388
 20
18.90416479697816
 30
0.0
 10
184.4759425088388
 20
18.90416479697816
 30
0.0
 10
184.4759425088388
 20
-10.09583078767658
 30
0.0
 10
184.4759425088388
 20
-10.09583078767658
 30
0.0
 10
184.4759425088388
 20
-10.09583078767658
 30
0.0
 10
182.8259570898719
 20
-10.09583078767658
 30
0.0
 10
182.8259570898719
 20
-10.09583078767658
 30
0.0
 10
182.8259570898719
 20
-10.09583078767658
 30
0.0
 10
182.8259570898719
 20
18.90416479697816
 30
0.0
 10
182.8259570898719
 20
18.90416479697816
 30
0.0
 10
182.8259570898719
 20
19.45645666695599
 30
0.0
 10
182.3782453997163
 20
19.90416835711227
 30
0.0
 10
181.8259535297378
 20
19.90416835711227
 30
0.0
 10
181.8259535297378
 20
19.90416835711227
 30
0.0
 10
181.1759501390583
 20
19.90416835711227
 30
0.0
 10
181.1759501390583
 20
19.90416835711227
 30
0.0
 10
181.1759501390583
 20
19.90416835711227
 30
0.0
 10
146.1259577772153
 20
19.90416835711227
 30
0.0
 10
146.1259577772153
 20
19.90416835711227
 30
0.0
 10
146.1259577772153
 20
19.90416835711227
 30
0.0
 10
145.4759543865358
 20
19.90416835711227
 30
0.0
 10
145.4759543865358
 20
19.90416835711227
 30
0.0
 10
144.9236625165567
 20
19.90416835711227
 30
0.0
 10
144.4759508264017
 20
19.45645666695599
 30
0.0
 10
144.4759508264017
 20
18.90416479697816
 30
0.0
 10
144.4759508264017
 20
18.90416479697816
 30
0.0
 10
144.4759508264017
 20
-10.09583078767658
 30
0.0
 10
144.4759508264017
 20
-10.09583078767658
 30
0.0
 10
144.4759508264017
 20
-10.09583078767658
 30
0.0
 10
142.8259438755881
 20
-10.09583078767658
 30
0.0
 10
142.8259438755881
 20
-10.09583078767658
 30
0.0
 10
142.8259438755881
 20
-10.09583078767658
 30
0.0
 10
142.8259438755881
 20
18.90416479697816
 30
0.0
 10
142.8259438755881
 20
18.90416479697816
 30
0.0
 10
142.8259438755881
 20
19.45645666695599
 30
0.0
 10
142.3782321854331
 20
19.90416835711227
 30
0.0
 10
141.8259618473008
 20
19.90416835711227
 30
0.0
 10
141.8259618473008
 20
19.90416835711227
 30
0.0
 10
141.1759584566212
 20
19.90416835711227
 30
0.0
 10
141.1759584566212
 20
19.90416835711227
 30
0.0
 10
141.1759584566212
 20
19.90416835711227
 30
0.0
 10
111.6509518518602
 20
19.90416835711227
 30
0.0
 10
111.6509518518602
 20
19.90416835711227
 30
0.0
 10
107.232681487568
 20
19.90416835711227
 30
0.0
 10
103.6509449026344
 20
16.32245330402422
 30
0.0
 10
103.6509449026344
 20
11.90416140788743
 30
0.0
 10
103.6509449026344
 20
11.90416140788743
 30
0.0
 10
103.6509449026344
 20
-17.62082366502646
 30
0.0
 10
103.6509449026344
 20
-17.62082366502646
 30
0.0
 10
103.6509449026344
 20
-17.62082366502646
 30
0.0
 10
103.6509449026344
 20
-18.27082705570726
 30
0.0
 10
103.6509449026344
 20
-18.27082705570726
 30
0.0
 10
103.6509449026344
 20
-18.82311892568573
 30
0.0
 10
104.0986781246362
 20
-19.27083061584202
 30
0.0
 10
104.6509484627682
 20
-19.27083061584202
 30
0.0
 10
104.6509484627682
 20
-19.27083061584202
 30
0.0
 10
133.6509440474239
 20
-19.27083061584202
 30
0.0
 10
133.6509440474239
 20
-19.27083061584202
 30
0.0
 10
133.6509440474239
 20
-19.27083061584202
 30
0.0
 10
133.6509440474239
 20
-20.92083756665436
 30
0.0
 10
133.6509440474239
 20
-20.92083756665436
 30
0.0
 10
133.6509440474239
 20
-20.92083756665436
 30
0.0
 10
104.6509484627682
 20
-20.92083756665436
 30
0.0
 10
104.6509484627682
 20
-20.92083756665436
 30
0.0
 10
104.0986781246362
 20
-20.92083756665436
 30
0.0
 10
103.6509449026344
 20
-21.36854925681064
 30
0.0
 10
103.6509449026344
 20
-21.92084112678911
 30
0.0
 10
103.6509449026344
 20
-21.92084112678911
 30
0.0
 10
103.6509449026344
 20
-22.57082298562185
 30
0.0
 10
103.6509449026344
 20
-22.57082298562185
 30
0.0
 10
103.6509449026344
 20
-22.57082298562185
 30
0.0
 10
103.6509449026344
 20
-57.62083687931288
 30
0.0
 10
103.6509449026344
 20
-57.62083687931288
 30
0.0
 10
103.6509449026344
 20
-57.62083687931288
 30
0.0
 10
103.6509449026344
 20
-58.27084026999047
 30
0.0
 10
103.6509449026344
 20
-58.27084026999047
 30
0.0
 10
103.6509449026344
 20
-58.82311060812409
 30
0.0
 10
104.0986781246362
 20
-59.27082229827716
 30
0.0
 10
104.6509484627682
 20
-59.27082229827716
 30
0.0
 10
104.6509484627682
 20
-59.27082229827716
 30
0.0
 10
133.6509440474239
 20
-59.27082229827716
 30
0.0
 10
133.6509440474239
 20
-59.27082229827716
 30
0.0
 10
133.6509440474239
 20
-59.27082229827716
 30
0.0
 10
133.6509440474239
 20
-60.9208292490895
 30
0.0
 10
133.6509440474239
 20
-60.9208292490895
 30
0.0
 10
133.6509440474239
 20
-60.9208292490895
 30
0.0
 10
104.6509484627682
 20
-60.9208292490895
 30
0.0
 10
104.6509484627682
 20
-60.9208292490895
 30
0.0
 10
104.0986781246362
 20
-60.9208292490895
 30
0.0
 10
103.6509449026344
 20
-61.36854093924578
 30
0.0
 10
103.6509449026344
 20
-61.92083280922362
 30
0.0
 10
103.6509449026344
 20
-61.92083280922362
 30
0.0
 10
103.6509449026344
 20
-62.57083619990505
 30
0.0
 10
103.6509449026344
 20
-62.57083619990505
 30
0.0
 10
103.6509449026344
 20
-62.57083619990505
 30
0.0
 10
103.6509449026344
 20
-92.09582127281895
 30
0.0
 10
103.6509449026344
 20
-92.09582127281895
 30
0.0
 10
103.6509449026344
 20
-96.51411316895894
 30
0.0
 10
107.232681487568
 20
-100.0958282220438
 30
0.0
 10
111.6509518518602
 20
-100.0958282220438
 30
0.0
 10
111.6509518518602
 20
-100.0958282220438
 30
0.0
 10
141.1759584566212
 20
-100.0958282220438
 30
0.0
 10
141.1759584566212
 20
-100.0958282220438
 30
0.0
 10
141.1759584566212
 20
-100.0958282220438
 30
0.0
 10
141.8259618473008
 20
-100.0958282220438
 30
0.0
 10
141.8259618473008
 20
-100.0958282220438
 30
0.0
 10
142.3782321854331
 20
-100.0958282220438
 30
0.0
 10
142.8259438755881
 20
-99.64811653189072
 30
0.0
 10
142.8259438755881
 20
-99.09582466190903
 30
0.0
 10
142.8259438755881
 20
-99.09582466190903
 30
0.0
 10
142.8259438755881
 20
-70.09582907725493
 30
0.0
 10
142.8259438755881
 20
-70.09582907725493
 30
0.0
 10
142.8259438755881
 20
-70.09582907725493
 30
0.0
 10
144.4759508264017
 20
-70.09582907725493
 30
0.0
 10
144.4759508264017
 20
-70.09582907725493
 30
0.0
 10
144.4759508264017
 20
-70.09582907725493
 30
0.0
 10
144.4759508264017
 20
-99.09582466190903
 30
0.0
 10
144.4759508264017
 20
-99.09582466190903
 30
0.0
 10
144.4759508264017
 20
-99.64811653189072
 30
0.0
 10
144.9236625165567
 20
-100.0958282220438
 30
0.0
 10
145.4759543865358
 20
-100.0958282220438
 30
0.0
 10
145.4759543865358
 20
-100.0958282220438
 30
0.0
 10
146.1259577772153
 20
-100.0958282220438
 30
0.0
 10
146.1259577772153
 20
-100.0958282220438
 30
0.0
 10
146.1259577772153
 20
-100.0958282220438
 30
0.0
 10
181.1759501390583
 20
-100.0958282220438
 30
0.0
 10
181.1759501390583
 20
-100.0958282220438
 30
0.0
 10
181.1759501390583
 20
-100.0958282220438
 30
0.0
 10
181.8259535297378
 20
-100.0958282220438
 30
0.0
 10
181.8259535297378
 20
-100.0958282220438
 30
0.0
 10
182.3782453997163
 20
-100.0958282220438
 30
0.0
 10
182.8259570898719
 20
-99.64811653189072
 30
0.0
 10
182.8259570898719
 20
-99.09582466190903
 30
0.0
 10
182.8259570898719
 20
-99.09582466190903
 30
0.0
 10
182.8259570898719
 20
-70.09582907725493
 30
0.0
 10
182.8259570898719
 20
-70.09582907725493
 30
0.0
 10
182.8259570898719
 20
-70.09582907725493
 30
0.0
 10
184.4759425088388
 20
-70.09582907725493
 30
0.0
 10
184.4759425088388
 20
-70.09582907725493
 30
0.0
 10
184.4759425088388
 20
-70.09582907725493
 30
0.0
 10
184.4759425088388
 20
-99.09582466190903
 30
0.0
 10
184.4759425088388
 20
-99.09582466190903
 30
0.0
 10
184.4759425088388
 20
-99.64811653189072
 30
0.0
 10
184.9236757308406
 20
-100.0958282220438
 30
0.0
 10
185.4759460689729
 20
-100.0958282220438
 30
0.0
 10
185.4759460689729
 20
-100.0958282220438
 30
0.0
 10
186.1259494596524
 20
-100.0958282220438
 30
0.0
 10
186.1259494596524
 20
-100.0958282220438
 30
0.0
 10
186.1259494596524
 20
-100.0958282220438
 30
0.0
 10
215.6509560644131
 20
-100.0958282220438
 30
0.0
 10
215.6509560644131
 20
-100.0958282220438
 30
0.0
 10
220.069226428705
 20
-100.0958282220438
 30
0.0
 10
223.6509630136392
 20
-96.51411316895894
 30
0.0
 10
223.6509630136392
 20
-92.09582127281895
 30
0.0
 10
223.6509630136392
 20
-92.09582127281895
 30
0.0
 10
223.6509630136392
 20
-62.57083619990505
 30
0.0
 10
223.6509630136392
 20
-62.57083619990505
 30
0.0
 10
223.6509630136392
 20
-62.57083619990505
 30
0.0
 10
223.6509630136392
 20
-61.92083280922362
 30
0.0
 10
223.6509630136392
 20
-61.92083280922362
 30
0.0
 10
223.6509630136392
 20
-61.36854093924578
 30
0.0
 10
223.2032297916368
 20
-60.9208292490895
 30
0.0
 10
222.6509594535051
 20
-60.9208292490895
 30
0.0
 10
222.6509594535051
 20
-60.9208292490895
 30
0.0
 10
193.6509423370023
 20
-60.9208292490895
 30
0.0
 10
193.6509423370023
 20
-60.9208292490895
 30
0.0
 10
193.6509423370023
 20
-60.9208292490895
 30
0.0
 10
193.6509423370023
 20
-59.27082229827716
 30
0.0
 10
193.6509423370023
 20
-59.27082229827716
 30
0.0
 10
193.6509423370023
 20
-59.27082229827716
 30
0.0
 10
222.6509594535051
 20
-59.27082229827716
 30
0.0
 10
222.6509594535051
 20
-59.27082229827716
 30
0.0
 10
223.2032297916368
 20
-59.27082229827716
 30
0.0
 10
223.6509630136392
 20
-58.82311060812409
 30
0.0
 10
223.6509630136392
 20
-58.27084026999047
 30
0.0
 10
223.6509630136392
 20
-58.27084026999047
 30
0.0
 10
223.6509630136392
 20
-57.62083687931288
 30
0.0
 10
223.6509630136392
 20
-57.62083687931288
 30
0.0
 10
223.6509630136392
 20
-57.62083687931288
 30
0.0
 10
223.6509630136392
 20
-22.57082298562185
 30
0.0
 10
223.6509630136392
 20
-22.57082298562185
 30
0.0
 10
223.6509630136392
 20
-22.57082298562185
 30
0.0
 10
223.6509630136392
 20
-21.92084112678911
 30
0.0
 10
223.6509630136392
 20
-21.92084112678911
 30
0.0
 10
223.6509630136392
 20
-21.36854925681064
 30
0.0
 10
223.2032297916368
 20
-20.92083756665436
 30
0.0
 10
222.6509594535051
 20
-20.92083756665436
 30
0.0
 10
222.6509594535051
 20
-20.92083756665436
 30
0.0
 10
193.6509423370023
 20
-20.92083756665436
 30
0.0
 10
193.6509423370023
 20
-20.92083756665436
 30
0.0
 10
193.6509423370023
 20
-20.92083756665436
 30
0.0
 10
193.6509423370023
 20
-19.27083061584202
 30
0.0
 10
193.6509423370023
 20
-19.27083061584202
 30
0.0
 10
193.6509423370023
 20
-19.27083061584202
 30
0.0
 10
222.6509594535051
 20
-19.27083061584202
 30
0.0
 10
222.6509594535051
 20
-19.27083061584202
 30
0.0
 10
223.2032297916368
 20
-19.27083061584202
 30
0.0
 10
223.6509630136392
 20
-18.82311892568573
 30
0.0
 10
223.6509630136392
 20
-18.27082705570726
 30
0.0
 10
223.6509630136392
 20
-18.27082705570726
 30
0.0
 10
223.6509630136392
 20
-17.62082366502646
 30
0.0
 10
223.6509630136392
 20
-17.62082366502646
 30
0.0
 10
223.6509630136392
 20
-17.62082366502646
 30
0.0
 10
223.6509630136392
 20
11.90416140788743
 30
0.0
 10
223.6509630136392
 20
11.90416140788743
 30
0.0
 10
223.6509630136392
 20
16.32245330402422
 30
0.0
 10
220.069226428705
 20
19.90416835711227
 30
0.0
 10
215.6509560644131
 20
19.90416835711227
 30
0.0
  0
SPLINE
  5
50
330
1F
100
AcDbEntity
  8
0
 62
   250
100
AcDbSpline
210
0.0
220
0.0
230
1.0
 70
    11
 71
     3
 72
   221
 73
   217
 74
     0
 42
0.0000000001
 43
0.0000000001
 12
1.0
 22
0.0
 32
0.0
 13
1.0
 23
0.0
 33
0.0
 40
0.0
 40
0.0
 40
0.0
 40
0.0
 40
1.0
 40
1.0
 40
1.0
 40
2.0
 40
2.0
 40
2.0
 40
3.0
 40
3.0
 40
3.0
 40
4.0
 40
4.0
 40
4.0
 40
5.0
 40
5.0
 40
5.0
 40
6.0
 40
6.0
 40
6.0
 40
7.0
 40
7.0
 40
7.0
 40
8.0
 40
8.0
 40
8.0
 40
9.0
 40
9.0
 40
9.0
 40
10.0
 40
10.0
 40
10.0
 40
11.0
 40
11.0
 40
11.0
 40
12.0
 40
12.0
 40
12.0
 40
13.0
 40
13.0
 40
13.0
 40
14.0
 40
14.0
 40
14.0
 40
15.0
 40
15.0
 40
15.0
 40
16.0
 40
16.0
 40
16.0
 40
17.0
 40
17.0
 40
17.0
 40
18.0
 40
18.0
 40
18.0
 40
19.0
 40
19.0
 40
19.0
 40
20.0
 40
20.0
 40
20.0
 40
21.0
 40
21.0
 40
21.0
 40
22.0
 40
22.0
 40
22.0
 40
23.0
 40
23.0
 40
23.0
 40
24.0
 40
24.0
 40
24.0
 40
25.0
 40
25.0
 40
25.0
 40
26.0
 40
26.0
 40
26.0
 40
27.0
 40
27.0
 40
27.0
 40
28.0
 40
28.0
 40
28.0
 40
29.0
 40
29.0
 40
29.0
 40
30.0
 40
30.0
 40
30.0
 40
31.0
 40
31.0
 40
31.0
 40
32.0
 40
32.0
 40
32.0
 40
33.0
 40
33.0
 40
33.0
 40
34.0
 40
34.0
 40
34.0
 40
35.0
 40
35.0
 40
35.0
 40
36.0
 40
36.0
 40
36.0
 40
37.0
 40
37.0
 40
37.0
 40
38.0
 40
38.0
 40
38.0
 40
39.0
 40
39.0
 40
39.0
 40
40.0
 40
40.0
 40
40.0
 40
41.0
 40
41.0
 40
41.0
 40
42.0
 40
42.0
 40
42.0
 40
43.0
 40
43.0
 40
43.0
 40
44.0
 40
44.0
 40
44.0
 40
45.0
 40
45.0
 40
45.0
 40
46.0
 40
46.0
 40
46.0
 40
47.0
 40
47.0
 40
47.0
 40
48.0
 40
48.0
 40
48.0
 40
49.0
 40
49.0
 40
49.0
 40
50.0
 40
50.0
 40
50.0
 40
51.0
 40
51.0
 40
51.0
 40
52.0
 40
52.0
 40
52.0
 40
53.0
 40
53.0
 40
53.0
 40
54.0
 40
54.0
 40
54.0
 40
55.0
 40
55.0
 40
55.0
 40
56.0
 40
56.0
 40
56.0
 40
57.0
 40
57.0
 40
57.0
 40
58.0
 40
58.0
 40
58.0
 40
59.0
 40
59.0
 40
59.0
 40
60.0
 40
60.0
 40
60.0
 40
61.0
 40
61.0
 40
61.0
 40
62.0
 40
62.0
 40
62.0
 40
63.0
 40
63.0
 40
63.0
 40
64.0
 40
64.0
 40
64.0
 40
65.0
 40
65.0
 40
65.0
 40
66.0
 40
66.0
 40
66.0
 40
67.0
 40
67.0
 40
67.0
 40
68.0
 40
68.0
 40
68.0
 40
69.0
 40
69.0
 40
69.0
 40
70.0
 40
70.0
 40
70.0
 40
71.0
 40
71.0
 40
71.0
 40
72.0
 40
72.0
 40
72.0
 40
72.0
 10
335.6509526435743
 20
19.90416835711227
 30
0.0
 10
335.6509526435743
 20
19.90416835711227
 30
0.0
 10
306.125946038813
 20
19.90416835711227
 30
0.0
 10
306.125946038813
 20
19.90416835711227
 30
0.0
 10
306.125946038813
 20
19.90416835711227
 30
0.0
 10
305.4759426481335
 20
19.90416835711227
 30
0.0
 10
305.4759426481335
 20
19.90416835711227
 30
0.0
 10
304.9236723100011
 20
19.90416835711227
 30
0.0
 10
304.475939088
 20
19.45645666695599
 30
0.0
 10
304.475939088
 20
18.90416479697816
 30
0.0
 10
304.475939088
 20
18.90416479697816
 30
0.0
 10
304.475939088
 20
-10.09583078767658
 30
0.0
 10
304.475939088
 20
-10.09583078767658
 30
0.0
 10
304.475939088
 20
-10.09583078767658
 30
0.0
 10
302.8259536690325
 20
-10.09583078767658
 30
0.0
 10
302.8259536690325
 20
-10.09583078767658
 30
0.0
 10
302.8259536690325
 20
-10.09583078767658
 30
0.0
 10
302.8259536690325
 20
18.90416479697816
 30
0.0
 10
302.8259536690325
 20
18.90416479697816
 30
0.0
 10
302.8259536690325
 20
19.45645666695599
 30
0.0
 10
302.3782419788775
 20
19.90416835711227
 30
0.0
 10
301.8259501088984
 20
19.90416835711227
 30
0.0
 10
301.8259501088984
 20
19.90416835711227
 30
0.0
 10
301.1759467182189
 20
19.90416835711227
 30
0.0
 10
301.1759467182189
 20
19.90416835711227
 30
0.0
 10
301.1759467182189
 20
19.90416835711227
 30
0.0
 10
266.1259543563759
 20
19.90416835711227
 30
0.0
 10
266.1259543563759
 20
19.90416835711227
 30
0.0
 10
266.1259543563759
 20
19.90416835711227
 30
0.0
 10
265.4759509656964
 20
19.90416835711227
 30
0.0
 10
265.4759509656964
 20
19.90416835711227
 30
0.0
 10
264.9236590957179
 20
19.90416835711227
 30
0.0
 10
264.4759474055623
 20
19.45645666695599
 30
0.0
 10
264.4759474055623
 20
18.90416479697816
 30
0.0
 10
264.4759474055623
 20
18.90416479697816
 30
0.0
 10
264.4759474055623
 20
-10.09583078767658
 30
0.0
 10
264.4759474055623
 20
-10.09583078767658
 30
0.0
 10
264.4759474055623
 20
-10.09583078767658
 30
0.0
 10
262.8259404547493
 20
-10.09583078767658
 30
0.0
 10
262.8259404547493
 20
-10.09583078767658
 30
0.0
 10
262.8259404547493
 20
-10.09583078767658
 30
0.0
 10
262.8259404547493
 20
18.90416479697816
 30
0.0
 10
262.8259404547493
 20
18.90416479697816
 30
0.0
 10
262.8259404547493
 20
19.45645666695599
 30
0.0
 10
262.3782287645936
 20
19.90416835711227
 30
0.0
 10
261.8259584264613
 20
19.90416835711227
 30
0.0
 10
261.8259584264613
 20
19.90416835711227
 30
0.0
 10
261.1759550357818
 20
19.90416835711227
 30
0.0
 10
261.1759550357818
 20
19.90416835711227
 30
0.0
 10
261.1759550357818
 20
19.90416835711227
 30
0.0
 10
231.6509484310211
 20
19.90416835711227
 30
0.0
 10
231.6509484310211
 20
19.90416835711227
 30
0.0
 10
227.2326780667279
 20
19.90416835711227
 30
0.0
 10
223.650941481795
 20
16.32245330402422
 30
0.0
 10
223.650941481795
 20
11.90416140788743
 30
0.0
 10
223.650941481795
 20
11.90416140788743
 30
0.0
 10
223.650941481795
 20
-17.62082366502646
 30
0.0
 10
223.650941481795
 20
-17.62082366502646
 30
0.0
 10
223.650941481795
 20
-17.62082366502646
 30
0.0
 10
223.650941481795
 20
-18.27082705570726
 30
0.0
 10
223.650941481795
 20
-18.27082705570726
 30
0.0
 10
223.650941481795
 20
-18.82311892568573
 30
0.0
 10
224.0986747037961
 20
-19.27083061584202
 30
0.0
 10
224.6509450419291
 20
-19.27083061584202
 30
0.0
 10
224.6509450419291
 20
-19.27083061584202
 30
0.0
 10
253.6509406265845
 20
-19.27083061584202
 30
0.0
 10
253.6509406265845
 20
-19.27083061584202
 30
0.0
 10
253.6509406265845
 20
-19.27083061584202
 30
0.0
 10
253.6509406265845
 20
-20.92083756665436
 30
0.0
 10
253.6509406265845
 20
-20.92083756665436
 30
0.0
 10
253.6509406265845
 20
-20.92083756665436
 30
0.0
 10
224.6509450419291
 20
-20.92083756665436
 30
0.0
 10
224.6509450419291
 20
-20.92083756665436
 30
0.0
 10
224.0986747037961
 20
-20.92083756665436
 30
0.0
 10
223.650941481795
 20
-21.36854925681064
 30
0.0
 10
223.650941481795
 20
-21.92084112678911
 30
0.0
 10
223.650941481795
 20
-21.92084112678911
 30
0.0
 10
223.650941481795
 20
-22.57082298562185
 30
0.0
 10
223.650941481795
 20
-22.57082298562185
 30
0.0
 10
223.650941481795
 20
-22.57082298562185
 30
0.0
 10
223.650941481795
 20
-57.62083687931288
 30
0.0
 10
223.650941481795
 20
-57.62083687931288
 30
0.0
 10
223.650941481795
 20
-57.62083687931288
 30
0.0
 10
223.650941481795
 20
-58.27084026999047
 30
0.0
 10
223.650941481795
 20
-58.27084026999047
 30
0.0
 10
223.650941481795
 20
-58.82311060812409
 30
0.0
 10
224.0986747037961
 20
-59.27082229827716
 30
0.0
 10
224.6509450419291
 20
-59.27082229827716
 30
0.0
 10
224.6509450419291
 20
-59.27082229827716
 30
0.0
 10
253.6509406265845
 20
-59.27082229827716
 30
0.0
 10
253.6509406265845
 20
-59.27082229827716
 30
0.0
 10
253.6509406265845
 20
-59.27082229827716
 30
0.0
 10
253.6509406265845
 20
-60.9208292490895
 30
0.0
 10
253.6509406265845
 20
-60.9208292490895
 30
0.0
 10
253.6509406265845
 20
-60.9208292490895
 30
0.0
 10
224.6509450419291
 20
-60.9208292490895
 30
0.0
 10
224.6509450419291
 20
-60.9208292490895
 30
0.0
 10
224.0986747037961
 20
-60.9208292490895
 30
0.0
 10
223.650941481795
 20
-61.36854093924578
 30
0.0
 10
223.650941481795
 20
-61.92083280922362
 30
0.0
 10
223.650941481795
 20
-61.92083280922362
 30
0.0
 10
223.650941481795
 20
-62.57083619990505
 30
0.0
 10
223.650941481795
 20
-62.57083619990505
 30
0.0
 10
223.650941481795
 20
-62.57083619990505
 30
0.0
 10
223.650941481795
 20
-92.09582127281895
 30
0.0
 10
223.650941481795
 20
-92.09582127281895
 30
0.0
 10
223.650941481795
 20
-96.51411316895894
 30
0.0
 10
227.2326780667279
 20
-100.0958282220438
 30
0.0
 10
231.6509484310211
 20
-100.0958282220438
 30
0.0
 10
231.6509484310211
 20
-100.0958282220438
 30
0.0
 10
261.1759550357818
 20
-100.0958282220438
 30
0.0
 10
261.1759550357818
 20
-100.0958282220438
 30
0.0
 10
261.1759550357818
 20
-100.0958282220438
 30
0.0
 10
261.8259584264613
 20
-100.0958282220438
 30
0.0
 10
261.8259584264613
 20
-100.0958282220438
 30
0.0
 10
262.3782287645936
 20
-100.0958282220438
 30
0.0
 10
262.8259404547493
 20
-99.64811653189072
 30
0.0
 10
262.8259404547493
 20
-99.09582466190903
 30
0.0
 10
262.8259404547493
 20
-99.09582466190903
 30
0.0
 10
262.8259404547493
 20
-70.09582907725493
 30
0.0
 10
262.8259404547493
 20
-70.09582907725493
 30
0.0
 10
262.8259404547493
 20
-70.09582907725493
 30
0.0
 10
264.4759474055623
 20
-70.09582907725493
 30
0.0
 10
264.4759474055623
 20
-70.09582907725493
 30
0.0
 10
264.4759474055623
 20
-70.09582907725493
 30
0.0
 10
264.4759474055623
 20
-99.09582466190903
 30
0.0
 10
264.4759474055623
 20
-99.09582466190903
 30
0.0
 10
264.4759474055623
 20
-99.64811653189072
 30
0.0
 10
264.9236590957179
 20
-100.0958282220438
 30
0.0
 10
265.4759509656964
 20
-100.0958282220438
 30
0.0
 10
265.4759509656964
 20
-100.0958282220438
 30
0.0
 10
266.1259543563759
 20
-100.0958282220438
 30
0.0
 10
266.1259543563759
 20
-100.0958282220438
 30
0.0
 10
266.1259543563759
 20
-100.0958282220438
 30
0.0
 10
301.1759467182189
 20
-100.0958282220438
 30
0.0
 10
301.1759467182189
 20
-100.0958282220438
 30
0.0
 10
301.1759467182189
 20
-100.0958282220438
 30
0.0
 10
301.8259501088984
 20
-100.0958282220438
 30
0.0
 10
301.8259501088984
 20
-100.0958282220438
 30
0.0
 10
302.3782419788775
 20
-100.0958282220438
 30
0.0
 10
302.8259536690325
 20
-99.64811653189072
 30
0.0
 10
302.8259536690325
 20
-99.09582466190903
 30
0.0
 10
302.8259536690325
 20
-99.09582466190903
 30
0.0
 10
302.8259536690325
 20
-70.09582907725493
 30
0.0
 10
302.8259536690325
 20
-70.09582907725493
 30
0.0
 10
302.8259536690325
 20
-70.09582907725493
 30
0.0
 10
304.475939088
 20
-70.09582907725493
 30
0.0
 10
304.475939088
 20
-70.09582907725493
 30
0.0
 10
304.475939088
 20
-70.09582907725493
 30
0.0
 10
304.475939088
 20
-99.09582466190903
 30
0.0
 10
304.475939088
 20
-99.09582466190903
 30
0.0
 10
304.475939088
 20
-99.64811653189072
 30
0.0
 10
304.9236723100011
 20
-100.0958282220438
 30
0.0
 10
305.4759426481335
 20
-100.0958282220438
 30
0.0
 10
305.4759426481335
 20
-100.0958282220438
 30
0.0
 10
306.125946038813
 20
-100.0958282220438
 30
0.0
 10
306.125946038813
 20
-100.0958282220438
 30
0.0
 10
306.125946038813
 20
-100.0958282220438
 30
0.0
 10
335.6509526435743
 20
-100.0958282220438
 30
0.0
 10
335.6509526435743
 20
-100.0958282220438
 30
0.0
 10
340.0692230078662
 20
-100.0958282220438
 30
0.0
 10
343.6509595927998
 20
-96.51411316895894
 30
0.0
 10
343.6509595927998
 20
-92.09582127281895
 30
0.0
 10
343.6509595927998
 20
-92.09582127281895
 30
0.0
 10
343.6509595927998
 20
-62.57083619990505
 30
0.0
 10
343.6509595927998
 20
-62.57083619990505
 30
0.0
 10
343.6509595927998
 20
-62.57083619990505
 30
0.0
 10
343.6509595927998
 20
-61.92083280922362
 30
0.0
 10
343.6509595927998
 20
-61.92083280922362
 30
0.0
 10
343.6509595927998
 20
-61.36854093924578
 30
0.0
 10
343.203226370798
 20
-60.9208292490895
 30
0.0
 10
342.6509560326663
 20
-60.9208292490895
 30
0.0
 10
342.6509560326663
 20
-60.9208292490895
 30
0.0
 10
313.6509389161635
 20
-60.9208292490895
 30
0.0
 10
313.6509389161635
 20
-60.9208292490895
 30
0.0
 10
313.6509389161635
 20
-60.9208292490895
 30
0.0
 10
313.6509389161635
 20
-59.27082229827716
 30
0.0
 10
313.6509389161635
 20
-59.27082229827716
 30
0.0
 10
313.6509389161635
 20
-59.27082229827716
 30
0.0
 10
342.6509560326663
 20
-59.27082229827716
 30
0.0
 10
342.6509560326663
 20
-59.27082229827716
 30
0.0
 10
343.203226370798
 20
-59.27082229827716
 30
0.0
 10
343.6509595927998
 20
-58.82311060812409
 30
0.0
 10
343.6509595927998
 20
-58.27084026999047
 30
0.0
 10
343.6509595927998
 20
-58.27084026999047
 30
0.0
 10
343.6509595927998
 20
-57.62083687931288
 30
0.0
 10
343.6509595927998
 20
-57.62083687931288
 30
0.0
 10
343.6509595927998
 20
-57.62083687931288
 30
0.0
 10
343.6509595927998
 20
-22.57082298562185
 30
0.0
 10
343.6509595927998
 20
-22.57082298562185
 30
0.0
 10
343.6509595927998
 20
-22.57082298562185
 30
0.0
 10
343.6509595927998
 20
-21.92084112678911
 30
0.0
 10
343.6509595927998
 20
-21.92084112678911
 30
0.0
 10
343.6509595927998
 20
-21.36854925681064
 30
0.0
 10
343.203226370798
 20
-20.92083756665436
 30
0.0
 10
342.6509560326663
 20
-20.92083756665436
 30
0.0
 10
342.6509560326663
 20
-20.92083756665436
 30
0.0
 10
313.6509389161635
 20
-20.92083756665436
 30
0.0
 10
313.6509389161635
 20
-20.92083756665436
 30
0.0
 10
313.6509389161635
 20
-20.92083756665436
 30
0.0
 10
313.6509389161635
 20
-19.27083061584202
 30
0.0
 10
313.6509389161635
 20
-19.27083061584202
 30
0.0
 10
313.6509389161635
 20
-19.27083061584202
 30
0.0
 10
342.6509560326663
 20
-19.27083061584202
 30
0.0
 10
342.6509560326663
 20
-19.27083061584202
 30
0.0
 10
343.203226370798
 20
-19.27083061584202
 30
0.0
 10
343.6509595927998
 20
-18.82311892568573
 30
0.0
 10
343.6509595927998
 20
-18.27082705570726
 30
0.0
 10
343.6509595927998
 20
-18.27082705570726
 30
0.0
 10
343.6509595927998
 20
-17.62082366502646
 30
0.0
 10
343.6509595927998
 20
-17.62082366502646
 30
0.0
 10
343.6509595927998
 20
-17.62082366502646
 30
0.0
 10
343.6509595927998
 20
11.90416140788743
 30
0.0
 10
343.6509595927998
 20
11.90416140788743
 30
0.0
 10
343.6509595927998
 20
16.32245330402422
 30
0.0
 10
340.0692230078662
 20
19.90416835711227
 30
0.0
 10
335.6509526435743
 20
19.90416835711227
 30
0.0
  0
SPLINE
  5
51
330
1F
100
AcDbEntity
  8
0
 62
   250
100
AcDbSpline
210
0.0
220
0.0
230
1.0
 70
    11
 71
     3
 72
   221
 73
   217
 74
     0
 42
0.0000000001
 43
0.0000000001
 12
1.0
 22
0.0
 32
0.0
 13
1.0
 23
0.0
 33
0.0
 40
0.0
 40
0.0
 40
0.0
 40
0.0
 40
1.0
 40
1.0
 40
1.0
 40
2.0
 40
2.0
 40
2.0
 40
3.0
 40
3.0
 40
3.0
 40
4.0
 40
4.0
 40
4.0
 40
5.0
 40
5.0
 40
5.0
 40
6.0
 40
6.0
 40
6.0
 40
7.0
 40
7.0
 40
7.0
 40
8.0
 40
8.0
 40
8.0
 40
9.0
 40
9.0
 40
9.0
 40
10.0
 40
10.0
 40
10.0
 40
11.0
 40
11.0
 40
11.0
 40
12.0
 40
12.0
 40
12.0
 40
13.0
 40
13.0
 40
13.0
 40
14.0
 40
14.0
 40
14.0
 40
15.0
 40
15.0
 40
15.0
 40
16.0
 40
16.0
 40
16.0
 40
17.0
 40
17.0
 40
17.0
 40
18.0
 40
18.0
 40
18.0
 40
19.0
 40
19.0
 40
19.0
 40
20.0
 40
20.0
 40
20.0
 40
21.0
 40
21.0
 40
21.0
 40
22.0
 40
22.0
 40
22.0
 40
23.0
 40
23.0
 40
23.0
 40
24.0
 40
24.0
 40
24.0
 40
25.0
 40
25.0
 40
25.0
 40
26.0
 40
26.0
 40
26.0
 40
27.0
 40
27.0
 40
27.0
 40
28.0
 40
28.0
 40
28.0
 40
29.0
 40
29.0
 40
29.0
 40
30.0
 40
30.0
 40
30.0
 40
31.0
 40
31.0
 40
31.0
 40
32.0
 40
32.0
 40
32.0
 40
33.0
 40
33.0
 40
33.0
 40
34.0
 40
34.0
 40
34.0
 40
35.0
 40
35.0
 40
35.0
 40
36.0
 40
36.0
 40
36.0
 40
37.0
 40
37.0
 40
37.0
 40
38.0
 40
38.0
 40
38.0
 40
39.0
 40
39.0
 40
39.0
 40
40.0
 40
40.0
 40
40.0
 40
41.0
 40
41.0
 40
41.0
 40
42.0
 40
42.0
 40
42.0
 40
43.0
 40
43.0
 40
43.0
 40
44.0
 40
44.0
 40
44.0
 40
45.0
 40
45.0
 40
45.0
 40
46.0
 40
46.0
 40
46.0
 40
47.0
 40
47.0
 40
47.0
 40
48.0
 40
48.0
 40
48.0
 40
49.0
 40
49.0
 40
49.0
 40
50.0
 40
50.0
 40
50.0
 40
51.0
 40
51.0
 40
51.0
 40
52.0
 40
52.0
 40
52.0
 40
53.0
 40
53.0
 40
53.0
 40
54.0
 40
54.0
 40
54.0
 40
55.0
 40
55.0
 40
55.0
 40
56.0
 40
56.0
 40
56.0
 40
57.0
 40
57.0
 40
57.0
 40
58.0
 40
58.0
 40
58.0
 40
59.0
 40
59.0
 40
59.0
 40
60.0
 40
60.0
 40
60.0
 40
61.0
 40
61.0
 40
61.0
 40
62.0
 40
62.0
 40
62.0
 40
63.0
 40
63.0
 40
63.0
 40
64.0
 40
64.0
 40
64.0
 40
65.0
 40
65.0
 40
65.0
 40
66.0
 40
66.0
 40
66.0
 40
67.0
 40
67.0
 40
67.0
 40
68.0
 40
68.0
 40
68.0
 40
69.0
 40
69.0
 40
69.0
 40
70.0
 40
70.0
 40
70.0
 40
71.0
 40
71.0
 40
71.0
 40
72.0
 40
72.0
 40
72.0
 40
72.0
 10
455.6509492227342
 20
19.90416835711227
 30
0.0
 10
455.6509492227342
 20
19.90416835711227
 30
0.0
 10
426.1259426179735
 20
19.90416835711227
 30
0.0
 10
426.1259426179735
 20
19.90416835711227
 30
0.0
 10
426.1259426179735
 20
19.90416835711227
 30
0.0
 10
425.475939227294
 20
19.90416835711227
 30
0.0
 10
425.475939227294
 20
19.90416835711227
 30
0.0
 10
424.9236688891617
 20
19.90416835711227
 30
0.0
 10
424.4759356671599
 20
19.45645666695599
 30
0.0
 10
424.4759356671599
 20
18.90416479697816
 30
0.0
 10
424.4759356671599
 20
18.90416479697816
 30
0.0
 10
424.4759356671599
 20
-10.09583078767658
 30
0.0
 10
424.4759356671599
 20
-10.09583078767658
 30
0.0
 10
424.4759356671599
 20
-10.09583078767658
 30
0.0
 10
422.8259502481931
 20
-10.09583078767658
 30
0.0
 10
422.8259502481931
 20
-10.09583078767658
 30
0.0
 10
422.8259502481931
 20
-10.09583078767658
 30
0.0
 10
422.8259502481931
 20
18.90416479697816
 30
0.0
 10
422.8259502481931
 20
18.90416479697816
 30
0.0
 10
422.8259502481931
 20
19.45645666695599
 30
0.0
 10
422.378238558038
 20
19.90416835711227
 30
0.0
 10
421.8259466880589
 20
19.90416835711227
 30
0.0
 10
421.8259466880589
 20
19.90416835711227
 30
0.0
 10
421.1759432973794
 20
19.90416835711227
 30
0.0
 10
421.1759432973794
 20
19.90416835711227
 30
0.0
 10
421.1759432973794
 20
19.90416835711227
 30
0.0
 10
386.1259509355365
 20
19.90416835711227
 30
0.0
 10
386.1259509355365
 20
19.90416835711227
 30
0.0
 10
386.1259509355365
 20
19.90416835711227
 30
0.0
 10
385.4759475448569
 20
19.90416835711227
 30
0.0
 10
385.4759475448569
 20
19.90416835711227
 30
0.0
 10
384.9236556748778
 20
19.90416835711227
 30
0.0
 10
384.4759439847228
 20
19.45645666695599
 30
0.0
 10
384.4759439847228
 20
18.90416479697816
 30
0.0
 10
384.4759439847228
 20
18.90416479697816
 30
0.0
 10
384.4759439847228
 20
-10.09583078767658
 30
0.0
 10
384.4759439847228
 20
-10.09583078767658
 30
0.0
 10
384.4759439847228
 20
-10.09583078767658
 30
0.0
 10
382.8259370339092
 20
-10.09583078767658
 30
0.0
 10
382.8259370339092
 20
-10.09583078767658
 30
0.0
 10
382.8259370339092
 20
-10.09583078767658
 30
0.0
 10
382.8259370339092
 20
18.90416479697816
 30
0.0
 10
382.8259370339092
 20
18.90416479697816
 30
0.0
 10
382.8259370339092
 20
19.45645666695599
 30
0.0
 10
382.3782253437542
 20
19.90416835711227
 30
0.0
 10
381.8259550056219
 20
19.90416835711227
 30
0.0
 10
381.8259550056219
 20
19.90416835711227
 30
0.0
 10
381.1759516149423
 20
19.90416835711227
 30
0.0
 10
381.1759516149423
 20
19.90416835711227
 30
0.0
 10
381.1759516149423
 20
19.90416835711227
 30
0.0
 10
351.6509450101817
 20
19.90416835711227
 30
0.0
 10
351.6509450101817
 20
19.90416835711227
 30
0.0
 10
347.2326746458891
 20
19.90416835711227
 30
0.0
 10
343.6509380609556
 20
16.32245330402422
 30
0.0
 10
343.6509380609556
 20
11.90416140788743
 30
0.0
 10
343.6509380609556
 20
11.90416140788743
 30
0.0
 10
343.6509380609556
 20
-17.62082366502646
 30
0.0
 10
343.6509380609556
 20
-17.62082366502646
 30
0.0
 10
343.6509380609556
 20
-17.62082366502646
 30
0.0
 10
343.6509380609556
 20
-18.27082705570726
 30
0.0
 10
343.6509380609556
 20
-18.27082705570726
 30
0.0
 10
343.6509380609556
 20
-18.82311892568573
 30
0.0
 10
344.0986712829574
 20
-19.27083061584202
 30
0.0
 10
344.6509416210897
 20
-19.27083061584202
 30
0.0
 10
344.6509416210897
 20
-19.27083061584202
 30
0.0
 10
373.650937205745
 20
-19.27083061584202
 30
0.0
 10
373.650937205745
 20
-19.27083061584202
 30
0.0
 10
373.650937205745
 20
-19.27083061584202
 30
0.0
 10
373.650937205745
 20
-20.92083756665436
 30
0.0
 10
373.650937205745
 20
-20.92083756665436
 30
0.0
 10
373.650937205745
 20
-20.92083756665436
 30
0.0
 10
344.6509416210897
 20
-20.92083756665436
 30
0.0
 10
344.6509416210897
 20
-20.92083756665436
 30
0.0
 10
344.0986712829574
 20
-20.92083756665436
 30
0.0
 10
343.6509380609556
 20
-21.36854925681064
 30
0.0
 10
343.6509380609556
 20
-21.92084112678911
 30
0.0
 10
343.6509380609556
 20
-21.92084112678911
 30
0.0
 10
343.6509380609556
 20
-22.57082298562185
 30
0.0
 10
343.6509380609556
 20
-22.57082298562185
 30
0.0
 10
343.6509380609556
 20
-22.57082298562185
 30
0.0
 10
343.6509380609556
 20
-57.62083687931288
 30
0.0
 10
343.6509380609556
 20
-57.62083687931288
 30
0.0
 10
343.6509380609556
 20
-57.62083687931288
 30
0.0
 10
343.6509380609556
 20
-58.27084026999047
 30
0.0
 10
343.6509380609556
 20
-58.27084026999047
 30
0.0
 10
343.6509380609556
 20
-58.82311060812409
 30
0.0
 10
344.0986712829574
 20
-59.27082229827716
 30
0.0
 10
344.6509416210897
 20
-59.27082229827716
 30
0.0
 10
344.6509416210897
 20
-59.27082229827716
 30
0.0
 10
373.650937205745
 20
-59.27082229827716
 30
0.0
 10
373.650937205745
 20
-59.27082229827716
 30
0.0
 10
373.650937205745
 20
-59.27082229827716
 30
0.0
 10
373.650937205745
 20
-60.9208292490895
 30
0.0
 10
373.650937205745
 20
-60.9208292490895
 30
0.0
 10
373.650937205745
 20
-60.9208292490895
 30
0.0
 10
344.6509416210897
 20
-60.9208292490895
 30
0.0
 10
344.6509416210897
 20
-60.9208292490895
 30
0.0
 10
344.0986712829574
 20
-60.9208292490895
 30
0.0
 10
343.6509380609556
 20
-61.36854093924578
 30
0.0
 10
343.6509380609556
 20
-61.92083280922362
 30
0.0
 10
343.6509380609556
 20
-61.92083280922362
 30
0.0
 10
343.6509380609556
 20
-62.57083619990505
 30
0.0
 10
343.6509380609556
 20
-62.57083619990505
 30
0.0
 10
343.6509380609556
 20
-62.57083619990505
 30
0.0
 10
343.6509380609556
 20
-92.09582127281895
 30
0.0
 10
343.6509380609556
 20
-92.09582127281895
 30
0.0
 10
343.6509380609556
 20
-96.51411316895894
 30
0.0
 10
347.2326746458891
 20
-100.0958282220438
 30
0.0
 10
351.6509450101817
 20
-100.0958282220438
 30
0.0
 10
351.6509450101817
 20
-100.0958282220438
 30
0.0
 10
381.1759516149423
 20
-100.0958282220438
 30
0.0
 10
381.1759516149423
 20
-100.0958282220438
 30
0.0
 10
381.1759516149423
 20
-100.0958282220438
 30
0.0
 10
381.8259550056219
 20
-100.0958282220438
 30
0.0
 10
381.8259550056219
 20
-100.0958282220438
 30
0.0
 10
382.3782253437542
 20
-100.0958282220438
 30
0.0
 10
382.8259370339092
 20
-99.64811653189072
 30
0.0
 10
382.8259370339092
 20
-99.09582466190903
 30
0.0
 10
382.8259370339092
 20
-99.09582466190903
 30
0.0
 10
382.8259370339092
 20
-70.09582907725493
 30
0.0
 10
382.8259370339092
 20
-70.09582907725493
 30
0.0
 10
382.8259370339092
 20
-70.09582907725493
 30
0.0
 10
384.4759439847228
 20
-70.09582907725493
 30
0.0
 10
384.4759439847228
 20
-70.09582907725493
 30
0.0
 10
384.4759439847228
 20
-70.09582907725493
 30
0.0
 10
384.4759439847228
 20
-99.09582466190903
 30
0.0
 10
384.4759439847228
 20
-99.09582466190903
 30
0.0
 10
384.4759439847228
 20
-99.64811653189072
 30
0.0
 10
384.9236556748778
 20
-100.0958282220438
 30
0.0
 10
385.4759475448569
 20
-100.0958282220438
 30
0.0
 10
385.4759475448569
 20
-100.0958282220438
 30
0.0
 10
386.1259509355365
 20
-100.0958282220438
 30
0.0
 10
386.1259509355365
 20
-100.0958282220438
 30
0.0
 10
386.1259509355365
 20
-100.0958282220438
 30
0.0
 10
421.1759432973794
 20
-100.0958282220438
 30
0.0
 10
421.1759432973794
 20
-100.0958282220438
 30
0.0
 10
421.1759432973794
 20
-100.0958282220438
 30
0.0
 10
421.8259466880589
 20
-100.0958282220438
 30
0.0
 10
421.8259466880589
 20
-100.0958282220438
 30
0.0
 10
422.378238558038
 20
-100.0958282220438
 30
0.0
 10
422.8259502481931
 20
-99.64811653189072
 30
0.0
 10
422.8259502481931
 20
-99.09582466190903
 30
0.0
 10
422.8259502481931
 20
-99.09582466190903
 30
0.0
 10
422.8259502481931
 20
-70.09582907725493
 30
0.0
 10
422.8259502481931
 20
-70.09582907725493
 30
0.0
 10
422.8259502481931
 20
-70.09582907725493
 30
0.0
 10
424.4759356671599
 20
-70.09582907725493
 30
0.0
 10
424.4759356671599
 20
-70.09582907725493
 30
0.0
 10
424.4759356671599
 20
-70.09582907725493
 30
0.0
 10
424.4759356671599
 20
-99.09582466190903
 30
0.0
 10
424.4759356671599
 20
-99.09582466190903
 30
0.0
 10
424.4759356671599
 20
-99.64811653189072
 30
0.0
 10
424.9236688891617
 20
-100.0958282220438
 30
0.0
 10
425.475939227294
 20
-100.0958282220438
 30
0.0
 10
425.475939227294
 20
-100.0958282220438
 30
0.0
 10
426.1259426179735
 20
-100.0958282220438
 30
0.0
 10
426.1259426179735
 20
-100.0958282220438
 30
0.0
 10
426.1259426179735
 20
-100.0958282220438
 30
0.0
 10
455.6509492227342
 20
-100.0958282220438
 30
0.0
 10
455.6509492227342
 20
-100.0958282220438
 30
0.0
 10
460.0692195870268
 20
-100.0958282220438
 30
0.0
 10
463.6509561719603
 20
-96.51411316895894
 30
0.0
 10
463.6509561719603
 20
-92.09582127281895
 30
0.0
 10
463.6509561719603
 20
-92.09582127281895
 30
0.0
 10
463.6509561719603
 20
-62.57083619990505
 30
0.0
 10
463.6509561719603
 20
-62.57083619990505
 30
0.0
 10
463.6509561719603
 20
-62.57083619990505
 30
0.0
 10
463.6509561719603
 20
-61.92083280922362
 30
0.0
 10
463.6509561719603
 20
-61.92083280922362
 30
0.0
 10
463.6509561719603
 20
-61.36854093924578
 30
0.0
 10
463.2032229499586
 20
-60.9208292490895
 30
0.0
 10
462.6509526118262
 20
-60.9208292490895
 30
0.0
 10
462.6509526118262
 20
-60.9208292490895
 30
0.0
 10
433.6509354953241
 20
-60.9208292490895
 30
0.0
 10
433.6509354953241
 20
-60.9208292490895
 30
0.0
 10
433.6509354953241
 20
-60.9208292490895
 30
0.0
 10
433.6509354953241
 20
-59.27082229827716
 30
0.0
 10
433.6509354953241
 20
-59.27082229827716
 30
0.0
 10
433.6509354953241
 20
-59.27082229827716
 30
0.0
 10
462.6509526118262
 20
-59.27082229827716
 30
0.0
 10
462.6509526118262
 20
-59.27082229827716
 30
0.0
 10
463.2032229499586
 20
-59.27082229827716
 30
0.0
 10
463.6509561719603
 20
-58.82311060812409
 30
0.0
 10
463.6509561719603
 20
-58.27084026999047
 30
0.0
 10
463.6509561719603
 20
-58.27084026999047
 30
0.0
 10
463.6509561719603
 20
-57.62083687931288
 30
0.0
 10
463.6509561719603
 20
-57.62083687931288
 30
0.0
 10
463.6509561719603
 20
-57.62083687931288
 30
0.0
 10
463.6509561719603
 20
-22.57082298562185
 30
0.0
 10
463.6509561719603
 20
-22.57082298562185
 30
0.0
 10
463.6509561719603
 20
-22.57082298562185
 30
0.0
 10
463.6509561719603
 20
-21.92084112678911
 30
0.0
 10
463.6509561719603
 20
-21.92084112678911
 30
0.0
 10
463.6509561719603
 20
-21.36854925681064
 30
0.0
 10
463.2032229499586
 20
-20.92083756665436
 30
0.0
 10
462.6509526118262
 20
-20.92083756665436
 30
0.0
 10
462.6509526118262
 20
-20.92083756665436
 30
0.0
 10
433.6509354953241
 20
-20.92083756665436
 30
0.0
 10
433.6509354953241
 20
-20.92083756665436
 30
0.0
 10
433.6509354953241
 20
-20.92083756665436
 30
0.0
 10
433.6509354953241
 20
-19.27083061584202
 30
0.0
 10
433.6509354953241
 20
-19.27083061584202
 30
0.0
 10
433.6509354953241
 20
-19.27083061584202
 30
0.0
 10
462.6509526118262
 20
-19.27083061584202
 30
0.0
 10
462.6509526118262
 20
-19.27083061584202
 30
0.0
 10
463.2032229499586
 20
-19.27083061584202
 30
0.0
 10
463.6509561719603
 20
-18.82311892568573
 30
0.0
 10
463.6509561719603
 20
-18.27082705570726
 30
0.0
 10
463.6509561719603
 20
-18.27082705570726
 30
0.0
 10
463.6509561719603
 20
-17.62082366502646
 30
0.0
 10
463.6509561719603
 20
-17.62082366502646
 30
0.0
 10
463.6509561719603
 20
-17.62082366502646
 30
0.0
 10
463.6509561719603
 20
11.90416140788743
 30
0.0
 10
463.6509561719603
 20
11.90416140788743
 30
0.0
 10
463.6509561719603
 20
16.32245330402422
 30
0.0
 10
460.0692195870268
 20
19.90416835711227
 30
0.0
 10
455.6509492227342
 20
19.90416835711227
 30
0.0
  0
INSERT
  5
53
330
1F
100
AcDbEntity
  8
0
100
AcDbBlockReference
  2
BLOCK_2
 10
0.0
 20
0.0
 30
0.0
  0
INSERT
  5
58
330
1F
100
AcDbEntity
  8
0
100
AcDbBlockReference
  2
BLOCK_3
 10
0.0
 20
0.0
 30
0.0
  0
INSERT
  5
60
330
1F
100
AcDbEntity
  8
0
100
AcDbBlockReference
  2
BLOCK_4
 10
0.0
 20
0.0
 30
0.0
  0
INSERT
  5
68
330
1F
100
AcDbEntity
  8
0
100
AcDbBlockReference
  2
BLOCK_5
 10
0.0
 20
0.0
 30
0.0
  0
INSERT
  5
73
330
1F
100
AcDbEntity
  8
0
100
AcDbBlockReference
  2
BLOCK_6
 10
0.0
 20
0.0
 30
0.0
  0
INSERT
  5
7B
330
1F
100
AcDbEntity
  8
0
100
AcDbBlockReference
  2
BLOCK_7
 10
0.0
 20
0.0
 30
0.0
  0
INSERT
  5
83
330
1F
100
AcDbEntity
  8
0
100
AcDbBlockReference
  2
BLOCK_8
 10
0.0
 20
0.0
 30
0.0
  0
INSERT
  5
8B
330
1F
100
AcDbEntity
  8
0
100
AcDbBlockReference
  2
BLOCK_9
 10
0.0
 20
0.0
 30
0.0
  0
INSERT
  5
93
330
1F
100
AcDbEntity
  8
0
100
AcDbBlockReference
  2
BLOCK_10
 10
0.0
 20
0.0
 30
0.0
  0
INSERT
  5
9E
330
1F
100
AcDbEntity
  8
0
100
AcDbBlockReference
  2
BLOCK_11
 10
0.0
 20
0.0
 30
0.0
  0
INSERT
  5
A9
330
1F
100
AcDbEntity
  8
0
100
AcDbBlockReference
  2
BLOCK_12
 10
0.0
 20
0.0
 30
0.0
  0
INSERT
  5
B4
330
1F
100
AcDbEntity
  8
0
100
AcDbBlockReference
  2
BLOCK_13
 10
0.0
 20
0.0
 30
0.0
  0
INSERT
  5
BF
330
1F
100
AcDbEntity
  8
0
100
AcDbBlockReference
  2
BLOCK_14
 10
0.0
 20
0.0
 30
0.0
  0
INSERT
  5
C7
330
1F
100
AcDbEntity
  8
0
100
AcDbBlockReference
  2
BLOCK_15
 10
0.0
 20
0.0
 30
0.0
  0
INSERT
  5
CF
330
1F
100
AcDbEntity
  8
0
100
AcDbBlockReference
  2
BLOCK_16
 10
0.0
 20
0.0
 30
0.0
  0
INSERT
  5
DA
330
1F
100
AcDbEntity
  8
0
100
AcDbBlockReference
  2
BLOCK_17
 10
0.0
 20
0.0
 30
0.0
  0
INSERT
  5
E2
330
1F
100
AcDbEntity
  8
0
100
AcDbBlockReference
  2
BLOCK_18
 10
0.0
 20
0.0
 30
0.0
  0
INSERT
  5
ED
330
1F
100
AcDbEntity
  8
0
100
AcDbBlockReference
  2
BLOCK_19
 10
0.0
 20
0.0
 30
0.0
  0
INSERT
  5
F8
330
1F
100
AcDbEntity
  8
0
100
AcDbBlockReference
  2
BLOCK_20
 10
0.0
 20
0.0
 30
0.0
  0
INSERT
  5
100
330
1F
100
AcDbEntity
  8
0
100
AcDbBlockReference
  2
BLOCK_21
 10
0.0
 20
0.0
 30
0.0
  0
INSERT
  5
105
330
1F
100
AcDbEntity
  8
0
100
AcDbBlockReference
  2
BLOCK_22
 10
0.0
 20
0.0
 30
0.0
  0
INSERT
  5
10D
330
1F
100
AcDbEntity
  8
0
100
AcDbBlockReference
  2
BLOCK_23
 10
0.0
 20
0.0
 30
0.0
  0
INSERT
  5
118
330
1F
100
AcDbEntity
  8
0
100
AcDbBlockReference
  2
BLOCK_24
 10
0.0
 20
0.0
 30
0.0
  0
INSERT
  5
120
330
1F
100
AcDbEntity
  8
0
100
AcDbBlockReference
  2
BLOCK_25
 10
0.0
 20
0.0
 30
0.0
  0
INSERT
  5
128
330
1F
100
AcDbEntity
  8
0
100
AcDbBlockReference
  2
BLOCK_26
 10
0.0
 20
0.0
 30
0.0
  0
INSERT
  5
130
330
1F
100
AcDbEntity
  8
0
100
AcDbBlockReference
  2
BLOCK_27
 10
0.0
 20
0.0
 30
0.0
  0
INSERT
  5
138
330
1F
100
AcDbEntity
  8
0
100
AcDbBlockReference
  2
BLOCK_28
 10
0.0
 20
0.0
 30
0.0
  0
INSERT
  5
140
330
1F
100
AcDbEntity
  8
0
100
AcDbBlockReference
  2
BLOCK_29
 10
0.0
 20
0.0
 30
0.0
  0
INSERT
  5
148
330
1F
100
AcDbEntity
  8
0
100
AcDbBlockReference
  2
BLOCK_30
 10
0.0
 20
0.0
 30
0.0
  0
INSERT
  5
153
330
1F
100
AcDbEntity
  8
0
100
AcDbBlockReference
  2
BLOCK_31
 10
0.0
 20
0.0
 30
0.0
  0
INSERT
  5
15B
330
1F
100
AcDbEntity
  8
0
100
AcDbBlockReference
  2
BLOCK_32
 10
0.0
 20
0.0
 30
0.0
  0
INSERT
  5
163
330
1F
100
AcDbEntity
  8
0
100
AcDbBlockReference
  2
BLOCK_33
 10
0.0
 20
0.0
 30
0.0
  0
ENDSEC
  0
SECTION
  2
OBJECTS
  0
DICTIONARY
  5
C
330
0
100
AcDbDictionary
  3
ACAD_GROUP
350
D
  3
ACAD_LAYOUT
350
1A
  3
ACAD_MATERIAL
350
3B
  3
ACAD_MLEADERSTYLE
350
16C
  3
ACAD_MLINESTYLE
350
17
  3
ACAD_PLOTSETTINGS
350
19
  3
ACAD_VISUALSTYLE
350
2A
  3
ACDBVARIABLEDICTIONARY
350
16A
1001
ACAD
1000
TREAT_AS_HARD
1070
     0
  0
DICTIONARY
  5
D
102
{ACAD_REACTORS
330
C
102
}
330
C
100
AcDbDictionary
1001
ACAD
1000
TREAT_AS_HARD
1070
     0
  0
DICTIONARY
  5
1A
102
{ACAD_REACTORS
330
C
102
}
330
C
100
AcDbDictionary
1001
ACAD
1000
TREAT_AS_HARD
1070
     0
  0
DICTIONARY
  5
3B
102
{ACAD_REACTORS
330
C
102
}
330
C
100
AcDbDictionary
  3
BYBLOCK
350
3D
  3
BYLAYER
350
3C
  3
GLOBAL
350
3E
1001
ACAD
1000
TREAT_AS_HARD
1070
     0
  0
DICTIONARY
  5
16C
102
{ACAD_REACTORS
330
C
102
}
330
C
100
AcDbDictionary
1001
ACAD
1000
TREAT_AS_HARD
1070
     0
  0
DICTIONARY
  5
17
102
{ACAD_REACTORS
330
C
102
}
330
C
100
AcDbDictionary
  3
STANDARD
350
18
1001
ACAD
1000
TREAT_AS_HARD
1070
     0
  0
DICTIONARY
  5
19
102
{ACAD_REACTORS
330
C
102
}
330
C
100
AcDbDictionary
1001
ACAD
1000
TREAT_AS_HARD
1070
     0
  0
DICTIONARY
  5
2A
102
{ACAD_REACTORS
330
C
102
}
330
C
100
AcDbDictionary
  3
2DWIREFRAME
350
2F
  3
3DWIREFRAME
350
30
  3
3D_HIDDEN
350
31
  3
BASIC
350
32
  3
BRIGHTEN
350
36
  3
COLORCHANGE
350
3A
  3
CONCEPTUAL
350
34
  3
DIM
350
35
  3
FACEPATTERN
350
39
  3
FLAT
350
2B
  3
FLATWITHEDGES
350
2C
  3
GOURAUD
350
2D
  3
GOURAUDWITHEDGES
350
2E
  3
LINEPATTERN
350
38
  3
REALISTIC
350
33
  3
THICKEN
350
37
1001
ACAD
1000
TREAT_AS_HARD
1070
     0
  0
DICTIONARY
  5
16A
102
{ACAD_REACTORS
330
C
102
}
330
C
100
AcDbDictionary
  3
DIMASSOC
350
16D
  3
HIDETEXT
350
16E
1001
ACAD
1000
TREAT_AS_HARD
1070
     0
  0
MATERIAL
  5
3D
102
{ACAD_REACTORS
330
3B
102
}
102
{ACAD_XDICTIONARY
360
171
102
}
330
3B
100
AcDbMaterial
  1
ByBlock
  0
MATERIAL
  5
3C
102
{ACAD_REACTORS
330
3B
102
}
102
{ACAD_XDICTIONARY
360
16F
102
}
330
3B
100
AcDbMaterial
  1
ByLayer
  0
MATERIAL
  5
3E
102
{ACAD_REACTORS
330
3B
102
}
102
{ACAD_XDICTIONARY
360
173
102
}
330
3B
100
AcDbMaterial
  1
Global
  0
MLINESTYLE
  5
18
102
{ACAD_REACTORS
330
17
102
}
330
17
100
AcDbMlineStyle
  2
Standard
 70
     0
  3

 62
   256
 51
90.0
 52
90.0
 71
     2
 49
0.5
 62
   256
  6
BYLAYER
 49
-0.5
 62
   256
  6
BYLAYER
  0
ACAD_PROXY_OBJECT
  5
2F
102
{ACAD_REACTORS
330
2A
102
}
330
2A
100
AcDbZombieObject
 90
      499
 91
      501
 93
      436
310
42CC9915DA5C99599C985B595049028333333333333E3BF0000000000000FB0107901411070040501600405405064090741402480A0340
1001
ACAD
1000
AcDbSavedByObjectVersion
1070
     0
  0
ACAD_PROXY_OBJECT
  5
30
102
{ACAD_REACTORS
330
2A
102
}
330
2A
100
AcDbZombieObject
 90
      499
 91
      501
 93
      436
310
42CCD915DA5C99599C985B595059028333333333333E3BF0000000000000FB0107901411070040501600405405064090741402480A0340
1001
ACAD
1000
AcDbSavedByObjectVersion
1070
     0
  0
ACAD_PROXY_OBJECT
  5
31
102
{ACAD_REACTORS
330
2A
102
}
330
2A
100
AcDbZombieObject
 90
      499
 91
      501
 93
      500
310
424CD108121A5919195B90640502408333333333333E3BF0000000000000FB01079024090700405020000000000001110200405405064090740C02480A0340
1001
ACAD
1000
AcDbSavedByObjectVersion
1070
     0
  0
ACAD_PROXY_OBJECT
  5
32
102
{ACAD_REACTORS
330
2A
102
}
330
2A
100
AcDbZombieObject
 90
      499
 91
      501
 93
      388
310
4150985CDA58D07406404333333333333E3BF0000000000000FB0107A41107004050150841D405064090741402480A0350
1001
ACAD
1000
AcDbSavedByObjectVersion
1070
     0
  0
ACAD_PROXY_OBJECT
  5
36
102
{ACAD_REACTORS
330
2A
102
}
330
2A
100
AcDbZombieObject
 90
      499
 91
      501
 93
      428
310
42109C9A59DA1D195B90C409028333333333333E3BF0000000000000FB010790141107004050150841D405064090741402480A029950
1001
ACAD
1000
AcDbSavedByObjectVersion
1070
     0
  0
ACAD_PROXY_OBJECT
  5
3A
102
{ACAD_REACTORS
330
2A
102
}
330
2A
100
AcDbZombieObject
 90
      499
 91
      501
 93
      452
310
42D0DBDB1BDC90DA185B99D95104090240C333333333333E3BF0000000000000FB0108901411070040501508421405064090741402480A0350
1001
ACAD
1000
AcDbSavedByObjectVersion
1070
     0
  0
ACAD_PROXY_OBJECT
  5
34
102
{ACAD_REACTORS
330
2A
102
}
330
2A
100
AcDbZombieObject
 90
      499
 91
      501
 93
      500
310
4290DBDB98D95C1D1D585B10940D028333333333333E3BF0000000000000FB0107902409070040501000000000000111010841D405064090740C02480A0340
1001
ACAD
1000
AcDbSavedByObjectVersion
1070
     0
  0
ACAD_PROXY_OBJECT
  5
35
102
{ACAD_REACTORS
330
2A
102
}
330
2A
100
AcDbZombieObject
 90
      499
 91
      501
 93
      412
310
40D11A5B50B409028333333333333E3BF0000000000000FB010790141107004050150841D405064090741402480A02677FFFFFD0
1001
ACAD
1000
AcDbSavedByObjectVersion
1070
     0
  0
ACAD_PROXY_OBJECT
  5
39
102
{ACAD_REACTORS
330
2A
102
}
330
2A
100
AcDbZombieObject
 90
      499
 91
      501
 93
      444
310
42D19858D95C185D1D195C9B90F409028333333333333E3BF0000000000000FB010790141107004050150841D405064090741402480A0350
1001
ACAD
1000
AcDbSavedByObjectVersion
1070
     0
  0
ACAD_PROXY_OBJECT
  5
2B
102
{ACAD_REACTORS
330
2A
102
}
330
2A
100
AcDbZombieObject
 90
      499
 91
      501
 93
      388
310
41119B185D240901404333333333333E3BF0000000000000F9010740A41107004050150841D405064090741402480A1B50
1001
ACAD
1000
AcDbSavedByObjectVersion
1070
     0
  0
ACAD_PROXY_OBJECT
  5
2C
102
{ACAD_REACTORS
330
2A
102
}
330
2A
100
AcDbZombieObject
 90
      499
 91
      501
 93
      476
310
43519B185D15DA5D1A115919D95CD0140901404333333333333E3BF0000000000000F9010740901411070040501600405405064090741402480A1B50
1001
ACAD
1000
AcDbSavedByObjectVersion
1070
     0
  0
ACAD_PROXY_OBJECT
  5
2D
102
{ACAD_REACTORS
330
2A
102
}
330
2A
100
AcDbZombieObject
 90
      499
 91
      501
 93
      412
310
41D1DBDD5C985D5910240902404333333333333E3BF0000000000000F9010740A411070040501641D405064090741402480A1B50
1001
ACAD
1000
AcDbSavedByObjectVersion
1070
     0
  0
ACAD_PROXY_OBJECT
  5
2E
102
{ACAD_REACTORS
330
2A
102
}
330
2A
100
AcDbZombieObject
 90
      499
 91
      501
 93
      500
310
4411DBDD5C985D5915DA5D1A115919D95CD0340902404333333333333E3BF0000000000000F9010740901411070040501600405405064090741402480A1B50
1001
ACAD
1000
AcDbSavedByObjectVersion
1070
     0
  0
ACAD_PROXY_OBJECT
  5
38
102
{ACAD_REACTORS
330
2A
102
}
330
2A
100
AcDbZombieObject
 90
      499
 91
      501
 93
      444
310
42D31A5B995C185D1D195C9B90E409028333333333333E3BF0000000000000FB010790141107004050750841D405064090741402483A0350
1001
ACAD
1000
AcDbSavedByObjectVersion
1070
     0
  0
ACAD_PROXY_OBJECT
  5
33
102
{ACAD_REACTORS
330
2A
102
}
330
2A
100
AcDbZombieObject
 90
      499
 91
      501
 93
      420
310
425499585B1A5CDD1A58D08409028333333333333E3BF0000000000000FB01079019070040501508421405064090741402480A1B40
1001
ACAD
1000
AcDbSavedByObjectVersion
1070
     0
  0
ACAD_PROXY_OBJECT
  5
37
102
{ACAD_REACTORS
330
2A
102
}
330
2A
100
AcDbZombieObject
 90
      499
 91
      501
 93
      412
310
41D51A1A58DAD95B90D409028333333333333E3BF0000000000000FB010790141107004050150C41D405064090741402480A0350
1001
ACAD
1000
AcDbSavedByObjectVersion
1070
     0
  0
DICTIONARYVAR
  5
16D
102
{ACAD_REACTORS
330
16A
102
}
330
16A
100
DictionaryVariables
280
     0
  1
2
  0
DICTIONARYVAR
  5
16E
102
{ACAD_REACTORS
330
16A
102
}
330
16A
100
DictionaryVariables
280
     0
  1
1
  0
DICTIONARY
  5
171
330
3D
100
AcDbDictionary
  3
ACAD_XREC_ROUNDTRIP
360
172
1001
ACAD
1000
TREAT_AS_HARD
1070
     1
  0
DICTIONARY
  5
16F
330
3C
100
AcDbDictionary
  3
ACAD_XREC_ROUNDTRIP
360
170
1001
ACAD
1000
TREAT_AS_HARD
1070
     1
  0
DICTIONARY
  5
173
330
3E
100
AcDbDictionary
  3
ACAD_XREC_ROUNDTRIP
360
174
1001
ACAD
1000
TREAT_AS_HARD
1070
     1
  0
XRECORD
  5
172
102
{ACAD_REACTORS
330
171
102
}
330
171
100
AcDbXrecord
102
MATERIAL
148
0.0
149
0.0
149
0.0
 93
        0
 94
      127
282
     0
 72
     1
 77
     1
171
     1
175
     1
179
     1
273
     0
  0
XRECORD
  5
170
102
{ACAD_REACTORS
330
16F
102
}
330
16F
100
AcDbXrecord
102
MATERIAL
148
0.0
149
0.0
149
0.0
 93
        0
 94
      127
282
     0
 72
     1
 77
     1
171
     1
175
     1
179
     1
273
     0
  0
XRECORD
  5
174
102
{ACAD_REACTORS
330
173
102
}
330
173
100
AcDbXrecord
102
MATERIAL
148
0.0
149
0.0
149
0.0
 93
        0
 94
      127
282
     0
 72
     1
 77
     1
171
     1
175
     1
179
     1
273
     0
  0
ENDSEC
  0
EOF
